ISO-10303-21;
HEADER;
/* Generated by software containing ST-Developer
 * from STEP Tools, Inc. (www.steptools.com) 
 */

FILE_DESCRIPTION(
/* description */ (''),
/* implementation_level */ '2;1');

FILE_NAME(
/* name */ 
'Q:\\Ric010\\FF7\\FIPlastiCAD\\FIP\\Lavoro\\PVC Fittings\\PVC Fittings
 STEP\\NRFV\\NRFV300212.ipt.stp',
/* time_stamp */ '2013-10-01T14:48:25+02:00',
/* author */ ('bfaro'),
/* organization */ (''),
/* preprocessor_version */ 'ST-DEVELOPER v15.2',
/* originating_system */ 'Autodesk Inventor 2014',
/* authorisation */ '');

FILE_SCHEMA (('AUTOMOTIVE_DESIGN { 1 0 10303 214 3 1 1 }'));
ENDSEC;

DATA;
#10=SHAPE_REPRESENTATION_RELATIONSHIP('SRR','None',#464,#11);
#11=ADVANCED_BREP_SHAPE_REPRESENTATION($,(#277),#455);
#12=STYLED_ITEM($,(#473),#271);
#13=STYLED_ITEM($,(#472),#277);
#14=LINE($,#392,#38);
#15=LINE($,#394,#39);
#16=LINE($,#396,#40);
#17=LINE($,#397,#41);
#18=LINE($,#400,#42);
#19=LINE($,#402,#43);
#20=LINE($,#403,#44);
#21=LINE($,#406,#45);
#22=LINE($,#408,#46);
#23=LINE($,#409,#47);
#24=LINE($,#412,#48);
#25=LINE($,#414,#49);
#26=LINE($,#415,#50);
#27=LINE($,#418,#51);
#28=LINE($,#420,#52);
#29=LINE($,#421,#53);
#30=LINE($,#424,#54);
#31=LINE($,#426,#55);
#32=LINE($,#427,#56);
#33=LINE($,#430,#57);
#34=LINE($,#432,#58);
#35=LINE($,#433,#59);
#36=LINE($,#435,#60);
#37=LINE($,#436,#61);
#38=VECTOR($,#318,39.350288425444);
#39=VECTOR($,#319,17.);
#40=VECTOR($,#320,39.350288425444);
#41=VECTOR($,#321,17.);
#42=VECTOR($,#324,39.350288425444);
#43=VECTOR($,#325,39.350288425444);
#44=VECTOR($,#326,17.);
#45=VECTOR($,#329,39.350288425444);
#46=VECTOR($,#330,39.350288425444);
#47=VECTOR($,#331,17.);
#48=VECTOR($,#334,39.350288425444);
#49=VECTOR($,#335,39.350288425444);
#50=VECTOR($,#336,17.);
#51=VECTOR($,#339,39.350288425444);
#52=VECTOR($,#340,39.350288425444);
#53=VECTOR($,#341,17.);
#54=VECTOR($,#344,39.350288425444);
#55=VECTOR($,#345,39.350288425444);
#56=VECTOR($,#346,17.);
#57=VECTOR($,#349,39.350288425444);
#58=VECTOR($,#350,39.350288425444);
#59=VECTOR($,#351,17.);
#60=VECTOR($,#354,39.350288425444);
#61=VECTOR($,#355,39.350288425444);
#62=PLANE($,#282);
#63=PLANE($,#284);
#64=PLANE($,#285);
#65=PLANE($,#286);
#66=PLANE($,#287);
#67=PLANE($,#288);
#68=PLANE($,#289);
#69=PLANE($,#290);
#70=PLANE($,#291);
#71=PLANE($,#292);
#72=PLANE($,#299);
#73=PLANE($,#302);
#74=PLANE($,#303);
#75=FACE_BOUND($,#102,.T.);
#76=FACE_BOUND($,#103,.T.);
#77=FACE_BOUND($,#104,.T.);
#78=FACE_BOUND($,#113,.T.);
#79=FACE_BOUND($,#114,.T.);
#80=FACE_BOUND($,#116,.T.);
#81=FACE_BOUND($,#118,.T.);
#82=FACE_BOUND($,#120,.T.);
#83=FACE_BOUND($,#122,.T.);
#84=FACE_BOUND($,#123,.T.);
#85=FACE_BOUND($,#124,.T.);
#86=FACE_BOUND($,#125,.T.);
#87=FACE_BOUND($,#126,.T.);
#88=FACE_OUTER_BOUND($,#101,.T.);
#89=FACE_OUTER_BOUND($,#105,.T.);
#90=FACE_OUTER_BOUND($,#106,.T.);
#91=FACE_OUTER_BOUND($,#107,.T.);
#92=FACE_OUTER_BOUND($,#108,.T.);
#93=FACE_OUTER_BOUND($,#109,.T.);
#94=FACE_OUTER_BOUND($,#110,.T.);
#95=FACE_OUTER_BOUND($,#111,.T.);
#96=FACE_OUTER_BOUND($,#112,.T.);
#97=FACE_OUTER_BOUND($,#115,.T.);
#98=FACE_OUTER_BOUND($,#117,.T.);
#99=FACE_OUTER_BOUND($,#119,.T.);
#100=FACE_OUTER_BOUND($,#121,.T.);
#101=EDGE_LOOP($,(#191));
#102=EDGE_LOOP($,(#192));
#103=EDGE_LOOP($,(#193));
#104=EDGE_LOOP($,(#194));
#105=EDGE_LOOP($,(#195,#196,#197,#198));
#106=EDGE_LOOP($,(#199,#200,#201,#202));
#107=EDGE_LOOP($,(#203,#204,#205,#206));
#108=EDGE_LOOP($,(#207,#208,#209,#210));
#109=EDGE_LOOP($,(#211,#212,#213,#214));
#110=EDGE_LOOP($,(#215,#216,#217,#218));
#111=EDGE_LOOP($,(#219,#220,#221,#222));
#112=EDGE_LOOP($,(#223,#224,#225,#226));
#113=EDGE_LOOP($,(#227));
#114=EDGE_LOOP($,(#228,#229,#230,#231,#232,#233,#234,#235));
#115=EDGE_LOOP($,(#236));
#116=EDGE_LOOP($,(#237));
#117=EDGE_LOOP($,(#238));
#118=EDGE_LOOP($,(#239));
#119=EDGE_LOOP($,(#240,#241,#242,#243,#244,#245,#246,#247));
#120=EDGE_LOOP($,(#248));
#121=EDGE_LOOP($,(#249));
#122=EDGE_LOOP($,(#250));
#123=EDGE_LOOP($,(#251));
#124=EDGE_LOOP($,(#252));
#125=EDGE_LOOP($,(#253));
#126=EDGE_LOOP($,(#254));
#127=CIRCLE($,#280,36.5);
#128=CIRCLE($,#281,36.5);
#129=CIRCLE($,#283,31.15);
#130=CIRCLE($,#293,43.942);
#131=CIRCLE($,#295,31.15);
#132=CIRCLE($,#297,37.592);
#133=CIRCLE($,#298,37.592);
#134=CIRCLE($,#301,43.942);
#135=VERTEX_POINT($,#382);
#136=VERTEX_POINT($,#384);
#137=VERTEX_POINT($,#387);
#138=VERTEX_POINT($,#390);
#139=VERTEX_POINT($,#391);
#140=VERTEX_POINT($,#393);
#141=VERTEX_POINT($,#395);
#142=VERTEX_POINT($,#399);
#143=VERTEX_POINT($,#401);
#144=VERTEX_POINT($,#405);
#145=VERTEX_POINT($,#407);
#146=VERTEX_POINT($,#411);
#147=VERTEX_POINT($,#413);
#148=VERTEX_POINT($,#417);
#149=VERTEX_POINT($,#419);
#150=VERTEX_POINT($,#423);
#151=VERTEX_POINT($,#425);
#152=VERTEX_POINT($,#429);
#153=VERTEX_POINT($,#431);
#154=VERTEX_POINT($,#438);
#155=VERTEX_POINT($,#441);
#156=VERTEX_POINT($,#444);
#157=VERTEX_POINT($,#446);
#158=VERTEX_POINT($,#450);
#159=EDGE_CURVE($,#135,#135,#127,.T.);
#160=EDGE_CURVE($,#136,#136,#128,.T.);
#161=EDGE_CURVE($,#137,#137,#129,.T.);
#162=EDGE_CURVE($,#138,#139,#14,.T.);
#163=EDGE_CURVE($,#139,#140,#15,.T.);
#164=EDGE_CURVE($,#141,#140,#16,.T.);
#165=EDGE_CURVE($,#138,#141,#17,.T.);
#166=EDGE_CURVE($,#142,#138,#18,.T.);
#167=EDGE_CURVE($,#143,#141,#19,.T.);
#168=EDGE_CURVE($,#142,#143,#20,.T.);
#169=EDGE_CURVE($,#144,#142,#21,.T.);
#170=EDGE_CURVE($,#145,#143,#22,.T.);
#171=EDGE_CURVE($,#144,#145,#23,.T.);
#172=EDGE_CURVE($,#146,#144,#24,.T.);
#173=EDGE_CURVE($,#147,#145,#25,.T.);
#174=EDGE_CURVE($,#146,#147,#26,.T.);
#175=EDGE_CURVE($,#148,#146,#27,.T.);
#176=EDGE_CURVE($,#149,#147,#28,.T.);
#177=EDGE_CURVE($,#148,#149,#29,.T.);
#178=EDGE_CURVE($,#150,#148,#30,.T.);
#179=EDGE_CURVE($,#151,#149,#31,.T.);
#180=EDGE_CURVE($,#150,#151,#32,.T.);
#181=EDGE_CURVE($,#152,#150,#33,.T.);
#182=EDGE_CURVE($,#153,#151,#34,.T.);
#183=EDGE_CURVE($,#152,#153,#35,.T.);
#184=EDGE_CURVE($,#139,#152,#36,.T.);
#185=EDGE_CURVE($,#140,#153,#37,.T.);
#186=EDGE_CURVE($,#154,#154,#130,.T.);
#187=EDGE_CURVE($,#155,#155,#131,.T.);
#188=EDGE_CURVE($,#156,#156,#132,.T.);
#189=EDGE_CURVE($,#157,#157,#133,.T.);
#190=EDGE_CURVE($,#158,#158,#134,.T.);
#191=ORIENTED_EDGE($,*,*,#159,.T.);
#192=ORIENTED_EDGE($,*,*,#160,.F.);
#193=ORIENTED_EDGE($,*,*,#161,.F.);
#194=ORIENTED_EDGE($,*,*,#159,.F.);
#195=ORIENTED_EDGE($,*,*,#162,.T.);
#196=ORIENTED_EDGE($,*,*,#163,.T.);
#197=ORIENTED_EDGE($,*,*,#164,.F.);
#198=ORIENTED_EDGE($,*,*,#165,.F.);
#199=ORIENTED_EDGE($,*,*,#166,.T.);
#200=ORIENTED_EDGE($,*,*,#165,.T.);
#201=ORIENTED_EDGE($,*,*,#167,.F.);
#202=ORIENTED_EDGE($,*,*,#168,.F.);
#203=ORIENTED_EDGE($,*,*,#169,.T.);
#204=ORIENTED_EDGE($,*,*,#168,.T.);
#205=ORIENTED_EDGE($,*,*,#170,.F.);
#206=ORIENTED_EDGE($,*,*,#171,.F.);
#207=ORIENTED_EDGE($,*,*,#172,.T.);
#208=ORIENTED_EDGE($,*,*,#171,.T.);
#209=ORIENTED_EDGE($,*,*,#173,.F.);
#210=ORIENTED_EDGE($,*,*,#174,.F.);
#211=ORIENTED_EDGE($,*,*,#175,.T.);
#212=ORIENTED_EDGE($,*,*,#174,.T.);
#213=ORIENTED_EDGE($,*,*,#176,.F.);
#214=ORIENTED_EDGE($,*,*,#177,.F.);
#215=ORIENTED_EDGE($,*,*,#178,.T.);
#216=ORIENTED_EDGE($,*,*,#177,.T.);
#217=ORIENTED_EDGE($,*,*,#179,.F.);
#218=ORIENTED_EDGE($,*,*,#180,.F.);
#219=ORIENTED_EDGE($,*,*,#181,.T.);
#220=ORIENTED_EDGE($,*,*,#180,.T.);
#221=ORIENTED_EDGE($,*,*,#182,.F.);
#222=ORIENTED_EDGE($,*,*,#183,.F.);
#223=ORIENTED_EDGE($,*,*,#184,.T.);
#224=ORIENTED_EDGE($,*,*,#183,.T.);
#225=ORIENTED_EDGE($,*,*,#185,.F.);
#226=ORIENTED_EDGE($,*,*,#163,.F.);
#227=ORIENTED_EDGE($,*,*,#186,.F.);
#228=ORIENTED_EDGE($,*,*,#185,.T.);
#229=ORIENTED_EDGE($,*,*,#182,.T.);
#230=ORIENTED_EDGE($,*,*,#179,.T.);
#231=ORIENTED_EDGE($,*,*,#176,.T.);
#232=ORIENTED_EDGE($,*,*,#173,.T.);
#233=ORIENTED_EDGE($,*,*,#170,.T.);
#234=ORIENTED_EDGE($,*,*,#167,.T.);
#235=ORIENTED_EDGE($,*,*,#164,.T.);
#236=ORIENTED_EDGE($,*,*,#161,.T.);
#237=ORIENTED_EDGE($,*,*,#187,.F.);
#238=ORIENTED_EDGE($,*,*,#188,.T.);
#239=ORIENTED_EDGE($,*,*,#189,.F.);
#240=ORIENTED_EDGE($,*,*,#184,.F.);
#241=ORIENTED_EDGE($,*,*,#162,.F.);
#242=ORIENTED_EDGE($,*,*,#166,.F.);
#243=ORIENTED_EDGE($,*,*,#169,.F.);
#244=ORIENTED_EDGE($,*,*,#172,.F.);
#245=ORIENTED_EDGE($,*,*,#175,.F.);
#246=ORIENTED_EDGE($,*,*,#178,.F.);
#247=ORIENTED_EDGE($,*,*,#181,.F.);
#248=ORIENTED_EDGE($,*,*,#188,.F.);
#249=ORIENTED_EDGE($,*,*,#186,.T.);
#250=ORIENTED_EDGE($,*,*,#190,.F.);
#251=ORIENTED_EDGE($,*,*,#160,.T.);
#252=ORIENTED_EDGE($,*,*,#190,.T.);
#253=ORIENTED_EDGE($,*,*,#187,.T.);
#254=ORIENTED_EDGE($,*,*,#189,.T.);
#255=CYLINDRICAL_SURFACE($,#279,36.5);
#256=CYLINDRICAL_SURFACE($,#294,31.15);
#257=CYLINDRICAL_SURFACE($,#296,37.592);
#258=CYLINDRICAL_SURFACE($,#300,43.942);
#259=ADVANCED_FACE($,(#88,#75),#255,.F.);
#260=ADVANCED_FACE($,(#76,#77),#62,.T.);
#261=ADVANCED_FACE($,(#89),#63,.T.);
#262=ADVANCED_FACE($,(#90),#64,.T.);
#263=ADVANCED_FACE($,(#91),#65,.T.);
#264=ADVANCED_FACE($,(#92),#66,.T.);
#265=ADVANCED_FACE($,(#93),#67,.T.);
#266=ADVANCED_FACE($,(#94),#68,.T.);
#267=ADVANCED_FACE($,(#95),#69,.T.);
#268=ADVANCED_FACE($,(#96),#70,.T.);
#269=ADVANCED_FACE($,(#78,#79),#71,.T.);
#270=ADVANCED_FACE($,(#97,#80),#256,.F.);
#271=ADVANCED_FACE($,(#98,#81),#257,.T.);
#272=ADVANCED_FACE($,(#99,#82),#72,.F.);
#273=ADVANCED_FACE($,(#100,#83),#258,.T.);
#274=ADVANCED_FACE($,(#84,#85),#73,.T.);
#275=ADVANCED_FACE($,(#86,#87),#74,.F.);
#276=CLOSED_SHELL($,(#259,#260,#261,#262,#263,#264,#265,#266,#267,#268,
#269,#270,#271,#272,#273,#274,#275));
#277=MANIFOLD_SOLID_BREP('Solido1',#276);
#278=AXIS2_PLACEMENT_3D('placement',#380,#304,#305);
#279=AXIS2_PLACEMENT_3D($,#381,#306,#307);
#280=AXIS2_PLACEMENT_3D($,#383,#308,#309);
#281=AXIS2_PLACEMENT_3D($,#385,#310,#311);
#282=AXIS2_PLACEMENT_3D($,#386,#312,#313);
#283=AXIS2_PLACEMENT_3D($,#388,#314,#315);
#284=AXIS2_PLACEMENT_3D($,#389,#316,#317);
#285=AXIS2_PLACEMENT_3D($,#398,#322,#323);
#286=AXIS2_PLACEMENT_3D($,#404,#327,#328);
#287=AXIS2_PLACEMENT_3D($,#410,#332,#333);
#288=AXIS2_PLACEMENT_3D($,#416,#337,#338);
#289=AXIS2_PLACEMENT_3D($,#422,#342,#343);
#290=AXIS2_PLACEMENT_3D($,#428,#347,#348);
#291=AXIS2_PLACEMENT_3D($,#434,#352,#353);
#292=AXIS2_PLACEMENT_3D($,#437,#356,#357);
#293=AXIS2_PLACEMENT_3D($,#439,#358,#359);
#294=AXIS2_PLACEMENT_3D($,#440,#360,#361);
#295=AXIS2_PLACEMENT_3D($,#442,#362,#363);
#296=AXIS2_PLACEMENT_3D($,#443,#364,#365);
#297=AXIS2_PLACEMENT_3D($,#445,#366,#367);
#298=AXIS2_PLACEMENT_3D($,#447,#368,#369);
#299=AXIS2_PLACEMENT_3D($,#448,#370,#371);
#300=AXIS2_PLACEMENT_3D($,#449,#372,#373);
#301=AXIS2_PLACEMENT_3D($,#451,#374,#375);
#302=AXIS2_PLACEMENT_3D($,#452,#376,#377);
#303=AXIS2_PLACEMENT_3D($,#453,#378,#379);
#304=DIRECTION('axis',(0.,0.,1.));
#305=DIRECTION('refdir',(1.,0.,0.));
#306=DIRECTION('center_axis',(-1.,0.,0.));
#307=DIRECTION('ref_axis',(0.,0.,1.));
#308=DIRECTION('center_axis',(-1.,0.,0.));
#309=DIRECTION('ref_axis',(0.,0.,1.));
#310=DIRECTION('center_axis',(-1.,0.,0.));
#311=DIRECTION('ref_axis',(0.,0.,1.));
#312=DIRECTION('center_axis',(1.,0.,0.));
#313=DIRECTION('ref_axis',(0.,0.,-1.));
#314=DIRECTION('center_axis',(1.,0.,0.));
#315=DIRECTION('ref_axis',(0.,0.,1.));
#316=DIRECTION('center_axis',(0.,0.923879532511287,-0.38268343236509));
#317=DIRECTION('ref_axis',(0.,0.38268343236509,0.923879532511287));
#318=DIRECTION($,(0.,0.38268343236509,0.923879532511287));
#319=DIRECTION($,(1.,0.,0.));
#320=DIRECTION($,(0.,0.38268343236509,0.923879532511287));
#321=DIRECTION($,(1.,0.,0.));
#322=DIRECTION('center_axis',(0.,0.38268343236509,-0.923879532511287));
#323=DIRECTION('ref_axis',(0.,0.923879532511287,0.38268343236509));
#324=DIRECTION($,(0.,0.923879532511287,0.38268343236509));
#325=DIRECTION($,(0.,0.923879532511287,0.38268343236509));
#326=DIRECTION($,(1.,0.,0.));
#327=DIRECTION('center_axis',(0.,-0.38268343236509,-0.923879532511287));
#328=DIRECTION('ref_axis',(0.,0.923879532511287,-0.38268343236509));
#329=DIRECTION($,(0.,0.923879532511287,-0.38268343236509));
#330=DIRECTION($,(0.,0.923879532511287,-0.38268343236509));
#331=DIRECTION($,(1.,0.,0.));
#332=DIRECTION('center_axis',(0.,-0.923879532511287,-0.38268343236509));
#333=DIRECTION('ref_axis',(0.,0.38268343236509,-0.923879532511287));
#334=DIRECTION($,(0.,0.38268343236509,-0.923879532511287));
#335=DIRECTION($,(0.,0.38268343236509,-0.923879532511287));
#336=DIRECTION($,(1.,0.,0.));
#337=DIRECTION('center_axis',(0.,-0.923879532511287,0.38268343236509));
#338=DIRECTION('ref_axis',(0.,-0.382683432365089,-0.923879532511287));
#339=DIRECTION($,(0.,-0.38268343236509,-0.923879532511287));
#340=DIRECTION($,(0.,-0.38268343236509,-0.923879532511287));
#341=DIRECTION($,(1.,0.,0.));
#342=DIRECTION('center_axis',(0.,-0.38268343236509,0.923879532511287));
#343=DIRECTION('ref_axis',(0.,-0.923879532511287,-0.38268343236509));
#344=DIRECTION($,(0.,-0.923879532511287,-0.38268343236509));
#345=DIRECTION($,(0.,-0.923879532511287,-0.38268343236509));
#346=DIRECTION($,(1.,0.,0.));
#347=DIRECTION('center_axis',(0.,0.38268343236509,0.923879532511287));
#348=DIRECTION('ref_axis',(0.,-0.923879532511287,0.38268343236509));
#349=DIRECTION($,(0.,-0.923879532511287,0.38268343236509));
#350=DIRECTION($,(0.,-0.923879532511287,0.38268343236509));
#351=DIRECTION($,(1.,0.,0.));
#352=DIRECTION('center_axis',(0.,0.923879532511287,0.38268343236509));
#353=DIRECTION('ref_axis',(0.,-0.38268343236509,0.923879532511287));
#354=DIRECTION($,(0.,-0.38268343236509,0.923879532511287));
#355=DIRECTION($,(0.,-0.38268343236509,0.923879532511287));
#356=DIRECTION('center_axis',(1.,0.,0.));
#357=DIRECTION('ref_axis',(0.,0.,-1.));
#358=DIRECTION('center_axis',(1.,0.,0.));
#359=DIRECTION('ref_axis',(0.,-1.,0.));
#360=DIRECTION('center_axis',(-1.,0.,0.));
#361=DIRECTION('ref_axis',(0.,0.,1.));
#362=DIRECTION('center_axis',(1.,0.,0.));
#363=DIRECTION('ref_axis',(0.,0.,1.));
#364=DIRECTION('center_axis',(1.,0.,0.));
#365=DIRECTION('ref_axis',(0.,0.,-1.));
#366=DIRECTION('center_axis',(-1.,0.,0.));
#367=DIRECTION('ref_axis',(0.,0.,-1.));
#368=DIRECTION('center_axis',(-1.,0.,0.));
#369=DIRECTION('ref_axis',(0.,0.,-1.));
#370=DIRECTION('center_axis',(1.,0.,0.));
#371=DIRECTION('ref_axis',(0.,0.,-1.));
#372=DIRECTION('center_axis',(1.,0.,0.));
#373=DIRECTION('ref_axis',(0.,-1.,0.));
#374=DIRECTION('center_axis',(1.,0.,0.));
#375=DIRECTION('ref_axis',(0.,-1.,0.));
#376=DIRECTION('center_axis',(1.,0.,0.));
#377=DIRECTION('ref_axis',(0.,0.,-1.));
#378=DIRECTION('center_axis',(1.,0.,0.));
#379=DIRECTION('ref_axis',(0.,0.,-1.));
#380=CARTESIAN_POINT('',(0.,0.,0.));
#381=CARTESIAN_POINT('Origin',(82.,0.,0.));
#382=CARTESIAN_POINT('',(40.5,4.46996081688784E-015,-36.5));
#383=CARTESIAN_POINT('Origin',(40.5,0.,0.));
#384=CARTESIAN_POINT('',(82.,4.46996081688784E-015,-36.5));
#385=CARTESIAN_POINT('Origin',(82.,0.,0.));
#386=CARTESIAN_POINT('Origin',(40.5,8.11121844475E-016,1.99474042369065E-015));
#387=CARTESIAN_POINT('',(40.5,3.81477477934401E-015,-31.15));
#388=CARTESIAN_POINT('Origin',(40.5,0.,0.));
#389=CARTESIAN_POINT('Origin',(31.,36.3549260746835,-36.3549260746835));
#390=CARTESIAN_POINT('',(31.,36.3549260746835,-36.3549260746835));
#391=CARTESIAN_POINT('',(31.,51.4136295138887,-5.32579077296847E-015));
#392=CARTESIAN_POINT($,(31.,36.3549260746835,-36.3549260746835));
#393=CARTESIAN_POINT('',(48.,51.4136295138887,-5.32579077296847E-015));
#394=CARTESIAN_POINT($,(31.,51.4136295138887,-5.32579077296847E-015));
#395=CARTESIAN_POINT('',(48.,36.3549260746835,-36.3549260746835));
#396=CARTESIAN_POINT($,(48.,36.3549260746835,-36.3549260746835));
#397=CARTESIAN_POINT($,(31.,36.3549260746835,-36.3549260746835));
#398=CARTESIAN_POINT('Origin',(31.,1.130943894901E-014,-51.4136295138887));
#399=CARTESIAN_POINT('',(31.,1.130943894901E-014,-51.4136295138887));
#400=CARTESIAN_POINT($,(31.,1.130943894901E-014,-51.4136295138887));
#401=CARTESIAN_POINT('',(48.,8.88178419700125E-015,-51.4136295138887));
#402=CARTESIAN_POINT($,(48.,1.130943894901E-014,-51.4136295138887));
#403=CARTESIAN_POINT($,(31.,1.130943894901E-014,-51.4136295138887));
#404=CARTESIAN_POINT('Origin',(31.,-36.3549260746835,-36.3549260746835));
#405=CARTESIAN_POINT('',(31.,-36.3549260746835,-36.3549260746835));
#406=CARTESIAN_POINT($,(31.,-36.3549260746835,-36.3549260746835));
#407=CARTESIAN_POINT('',(48.,-36.3549260746835,-36.3549260746835));
#408=CARTESIAN_POINT($,(48.,-36.3549260746835,-36.3549260746835));
#409=CARTESIAN_POINT($,(31.,-36.3549260746835,-36.3549260746835));
#410=CARTESIAN_POINT('Origin',(31.,-51.4136295138887,-2.00581470201476E-014));
#411=CARTESIAN_POINT('',(31.,-51.4136295138887,-2.00581470201476E-014));
#412=CARTESIAN_POINT($,(31.,-51.4136295138887,-2.00581470201476E-014));
#413=CARTESIAN_POINT('',(48.,-51.4136295138887,-2.00581470201476E-014));
#414=CARTESIAN_POINT($,(48.,-51.4136295138887,-2.00581470201476E-014));
#415=CARTESIAN_POINT($,(31.,-51.4136295138887,-2.00581470201476E-014));
#416=CARTESIAN_POINT('Origin',(31.,-36.3549260746835,36.3549260746835));
#417=CARTESIAN_POINT('',(31.,-36.3549260746835,36.3549260746835));
#418=CARTESIAN_POINT($,(31.,-36.3549260746835,36.3549260746835));
#419=CARTESIAN_POINT('',(48.,-36.3549260746835,36.3549260746835));
#420=CARTESIAN_POINT($,(48.,-36.3549260746835,36.3549260746835));
#421=CARTESIAN_POINT($,(31.,-36.3549260746835,36.3549260746835));
#422=CARTESIAN_POINT('Origin',(31.,2.90154158139658E-015,51.4136295138887));
#423=CARTESIAN_POINT('',(31.,2.90154158139658E-015,51.4136295138887));
#424=CARTESIAN_POINT($,(31.,2.90154158139658E-015,51.4136295138887));
#425=CARTESIAN_POINT('',(48.,0.,51.4136295138887));
#426=CARTESIAN_POINT($,(48.,2.90154158139658E-015,51.4136295138887));
#427=CARTESIAN_POINT($,(31.,2.90154158139658E-015,51.4136295138887));
#428=CARTESIAN_POINT('Origin',(31.,36.3549260746835,36.3549260746835));
#429=CARTESIAN_POINT('',(31.,36.3549260746835,36.3549260746835));
#430=CARTESIAN_POINT($,(31.,36.3549260746835,36.3549260746835));
#431=CARTESIAN_POINT('',(48.,36.3549260746835,36.3549260746835));
#432=CARTESIAN_POINT($,(48.,36.3549260746835,36.3549260746835));
#433=CARTESIAN_POINT($,(31.,36.3549260746835,36.3549260746835));
#434=CARTESIAN_POINT('Origin',(31.,51.4136295138887,-5.32579077296847E-015));
#435=CARTESIAN_POINT($,(31.,51.4136295138887,-5.32579077296847E-015));
#436=CARTESIAN_POINT($,(48.,51.4136295138887,-5.32579077296847E-015));
#437=CARTESIAN_POINT('Origin',(48.,2.03139699787624E-014,-8.0409464499268E-015));
#438=CARTESIAN_POINT('',(48.,5.3813429648133E-015,43.942));
#439=CARTESIAN_POINT('Origin',(48.,0.,0.));
#440=CARTESIAN_POINT('Origin',(82.,0.,0.));
#441=CARTESIAN_POINT('',(0.,3.81477477934401E-015,-31.15));
#442=CARTESIAN_POINT('Origin',(0.,0.,0.));
#443=CARTESIAN_POINT('Origin',(0.,0.,0.));
#444=CARTESIAN_POINT('',(31.,4.60369224735473E-015,37.592));
#445=CARTESIAN_POINT('Origin',(31.,0.,0.));
#446=CARTESIAN_POINT('',(0.,4.60369224735473E-015,37.592));
#447=CARTESIAN_POINT('Origin',(0.,0.,0.));
#448=CARTESIAN_POINT('Origin',(31.,-6.73750564911417E-016,-1.79594637689061E-015));
#449=CARTESIAN_POINT('Origin',(0.,0.,0.));
#450=CARTESIAN_POINT('',(82.,43.942,5.3813429648133E-015));
#451=CARTESIAN_POINT('Origin',(82.,0.,0.));
#452=CARTESIAN_POINT('Origin',(82.,-1.79594637689061E-015,-6.73750564911417E-016));
#453=CARTESIAN_POINT('Origin',(0.,-1.79594637689061E-015,-6.73750564911417E-016));
#454=UNCERTAINTY_MEASURE_WITH_UNIT(LENGTH_MEASURE(0.01),#456,
'DISTANCE_ACCURACY_VALUE',
'Maximum model space distance between geometric entities at asserted c
onnectivities');
#455=(
GEOMETRIC_REPRESENTATION_CONTEXT(3)
GLOBAL_UNCERTAINTY_ASSIGNED_CONTEXT((#454))
GLOBAL_UNIT_ASSIGNED_CONTEXT((#456,#459,#457))
REPRESENTATION_CONTEXT('','3D')
);
#456=(
LENGTH_UNIT()
NAMED_UNIT(*)
SI_UNIT(.MILLI.,.METRE.)
);
#457=(
NAMED_UNIT(*)
SI_UNIT($,.STERADIAN.)
SOLID_ANGLE_UNIT()
);
#458=DIMENSIONAL_EXPONENTS(0.,0.,0.,0.,0.,0.,0.);
#459=(
CONVERSION_BASED_UNIT('degree',#461)
NAMED_UNIT(#458)
PLANE_ANGLE_UNIT()
);
#460=(
NAMED_UNIT(*)
PLANE_ANGLE_UNIT()
SI_UNIT($,.RADIAN.)
);
#461=PLANE_ANGLE_MEASURE_WITH_UNIT(PLANE_ANGLE_MEASURE(0.01745329252),#460);
#462=SHAPE_DEFINITION_REPRESENTATION(#463,#464);
#463=PRODUCT_DEFINITION_SHAPE('',$,#466);
#464=SHAPE_REPRESENTATION('',(#278),#455);
#465=PRODUCT_DEFINITION_CONTEXT('3D Mechanical Parts',#469,'design');
#466=PRODUCT_DEFINITION('NRFV300212','NRFV300212',#467,#465);
#467=PRODUCT_DEFINITION_FORMATION('',$,#471);
#468=APPLICATION_PROTOCOL_DEFINITION('international standard',
'automotive_design',2009,#469);
#469=APPLICATION_CONTEXT(
'Core Data for Automotive Mechanical Design Process');
#470=PRODUCT_CONTEXT('3D Mechanical Parts',#469,'mechanical');
#471=PRODUCT('NRFV300212','NRFV300212',$,(#470));
#472=PRESENTATION_STYLE_ASSIGNMENT((#474));
#473=PRESENTATION_STYLE_ASSIGNMENT((#475));
#474=SURFACE_STYLE_USAGE(.BOTH.,#476);
#475=SURFACE_STYLE_USAGE(.BOTH.,#477);
#476=SURFACE_SIDE_STYLE($,(#478));
#477=SURFACE_SIDE_STYLE($,(#479));
#478=SURFACE_STYLE_FILL_AREA(#480);
#479=SURFACE_STYLE_FILL_AREA(#481);
#480=FILL_AREA_STYLE($,(#482));
#481=FILL_AREA_STYLE($,(#483));
#482=FILL_AREA_STYLE_COLOUR($,#484);
#483=FILL_AREA_STYLE_COLOUR($,#485);
#484=COLOUR_RGB('',0.509803921568627,0.509803921568627,0.588235294117647);
#485=COLOUR_RGB('',1.,0.,0.);
ENDSEC;
END-ISO-10303-21;
