ISO-10303-21;
HEADER;
/* Generated by software containing ST-Developer
 * from STEP Tools, Inc. (www.steptools.com) 
 */

FILE_DESCRIPTION(
/* description */ (''),
/* implementation_level */ '2;1');

FILE_NAME(
/* name */ 
'Q:\\Ric010\\FF7\\FIPlastiCAD\\FIP\\Lavoro\\PVC Fittings\\PVC Fittings
 STEP\\CIV\\CIV225.ipt.stp',
/* time_stamp */ '2013-10-01T14:36:29+02:00',
/* author */ ('bfaro'),
/* organization */ (''),
/* preprocessor_version */ 'ST-DEVELOPER v15.2',
/* originating_system */ 'Autodesk Inventor 2014',
/* authorisation */ '');

FILE_SCHEMA (('AUTOMOTIVE_DESIGN { 1 0 10303 214 3 1 1 }'));
ENDSEC;

DATA;
#10=SHAPE_REPRESENTATION_RELATIONSHIP('SRR','None',#135,#11);
#11=ADVANCED_BREP_SHAPE_REPRESENTATION($,(#71),#126);
#12=STYLED_ITEM($,(#143),#71);
#13=PLANE($,#82);
#14=PLANE($,#83);
#15=CYLINDRICAL_SURFACE($,#77,130.);
#16=CYLINDRICAL_SURFACE($,#79,112.5);
#17=FACE_BOUND($,#30,.T.);
#18=FACE_BOUND($,#32,.T.);
#19=FACE_BOUND($,#34,.T.);
#20=FACE_BOUND($,#37,.T.);
#21=TOROIDAL_SURFACE($,#75,98.,32.);
#22=FACE_OUTER_BOUND($,#28,.T.);
#23=FACE_OUTER_BOUND($,#29,.T.);
#24=FACE_OUTER_BOUND($,#31,.T.);
#25=FACE_OUTER_BOUND($,#33,.T.);
#26=FACE_OUTER_BOUND($,#35,.T.);
#27=FACE_OUTER_BOUND($,#36,.T.);
#28=EDGE_LOOP($,(#53));
#29=EDGE_LOOP($,(#54));
#30=EDGE_LOOP($,(#55));
#31=EDGE_LOOP($,(#56));
#32=EDGE_LOOP($,(#57));
#33=EDGE_LOOP($,(#58));
#34=EDGE_LOOP($,(#59));
#35=EDGE_LOOP($,(#60));
#36=EDGE_LOOP($,(#61));
#37=EDGE_LOOP($,(#62));
#38=CIRCLE($,#74,106.6391184573);
#39=CIRCLE($,#76,130.);
#40=CIRCLE($,#78,130.);
#41=CIRCLE($,#80,112.5);
#42=CIRCLE($,#81,112.5);
#43=VERTEX_POINT($,#110);
#44=VERTEX_POINT($,#113);
#45=VERTEX_POINT($,#116);
#46=VERTEX_POINT($,#119);
#47=VERTEX_POINT($,#121);
#48=EDGE_CURVE($,#43,#43,#38,.T.);
#49=EDGE_CURVE($,#44,#44,#39,.T.);
#50=EDGE_CURVE($,#45,#45,#40,.T.);
#51=EDGE_CURVE($,#46,#46,#41,.T.);
#52=EDGE_CURVE($,#47,#47,#42,.T.);
#53=ORIENTED_EDGE($,*,*,#48,.F.);
#54=ORIENTED_EDGE($,*,*,#48,.T.);
#55=ORIENTED_EDGE($,*,*,#49,.F.);
#56=ORIENTED_EDGE($,*,*,#49,.T.);
#57=ORIENTED_EDGE($,*,*,#50,.F.);
#58=ORIENTED_EDGE($,*,*,#51,.T.);
#59=ORIENTED_EDGE($,*,*,#52,.F.);
#60=ORIENTED_EDGE($,*,*,#52,.T.);
#61=ORIENTED_EDGE($,*,*,#50,.T.);
#62=ORIENTED_EDGE($,*,*,#51,.F.);
#63=SPHERICAL_SURFACE($,#73,395.);
#64=ADVANCED_FACE($,(#22),#63,.T.);
#65=ADVANCED_FACE($,(#23,#17),#21,.T.);
#66=ADVANCED_FACE($,(#24,#18),#15,.T.);
#67=ADVANCED_FACE($,(#25,#19),#16,.F.);
#68=ADVANCED_FACE($,(#26),#13,.T.);
#69=ADVANCED_FACE($,(#27,#20),#14,.T.);
#70=CLOSED_SHELL($,(#64,#65,#66,#67,#68,#69));
#71=MANIFOLD_SOLID_BREP('Solido1',#70);
#72=AXIS2_PLACEMENT_3D('placement',#108,#84,#85);
#73=AXIS2_PLACEMENT_3D($,#109,#86,#87);
#74=AXIS2_PLACEMENT_3D($,#111,#88,#89);
#75=AXIS2_PLACEMENT_3D($,#112,#90,#91);
#76=AXIS2_PLACEMENT_3D($,#114,#92,#93);
#77=AXIS2_PLACEMENT_3D($,#115,#94,#95);
#78=AXIS2_PLACEMENT_3D($,#117,#96,#97);
#79=AXIS2_PLACEMENT_3D($,#118,#98,#99);
#80=AXIS2_PLACEMENT_3D($,#120,#100,#101);
#81=AXIS2_PLACEMENT_3D($,#122,#102,#103);
#82=AXIS2_PLACEMENT_3D($,#123,#104,#105);
#83=AXIS2_PLACEMENT_3D($,#124,#106,#107);
#84=DIRECTION('axis',(0.,0.,1.));
#85=DIRECTION('refdir',(1.,0.,0.));
#86=DIRECTION('center_axis',(6.12323399573677E-017,0.,1.));
#87=DIRECTION('ref_axis',(1.,0.,0.));
#88=DIRECTION('center_axis',(0.,0.,-1.));
#89=DIRECTION('ref_axis',(-1.,0.,0.));
#90=DIRECTION('center_axis',(0.,0.,-1.));
#91=DIRECTION('ref_axis',(-1.,0.,0.));
#92=DIRECTION('center_axis',(0.,0.,-1.));
#93=DIRECTION('ref_axis',(-1.,0.,0.));
#94=DIRECTION('center_axis',(0.,0.,-1.));
#95=DIRECTION('ref_axis',(-1.,0.,0.));
#96=DIRECTION('center_axis',(0.,0.,-1.));
#97=DIRECTION('ref_axis',(-1.,0.,0.));
#98=DIRECTION('center_axis',(0.,0.,-1.));
#99=DIRECTION('ref_axis',(-1.,0.,0.));
#100=DIRECTION('center_axis',(0.,0.,-1.));
#101=DIRECTION('ref_axis',(-1.,0.,0.));
#102=DIRECTION('center_axis',(0.,0.,-1.));
#103=DIRECTION('ref_axis',(-1.,0.,0.));
#104=DIRECTION('center_axis',(0.,0.,-1.));
#105=DIRECTION('ref_axis',(-1.,0.,0.));
#106=DIRECTION('center_axis',(0.,0.,-1.));
#107=DIRECTION('ref_axis',(-1.,0.,0.));
#108=CARTESIAN_POINT('',(0.,0.,0.));
#109=CARTESIAN_POINT('Origin',(0.,-5.162537E-014,-232.5));
#110=CARTESIAN_POINT('',(-106.6391184573,3.282549E-014,147.832878429738));
#111=CARTESIAN_POINT('Origin',(0.,3.282549E-014,147.832878429738));
#112=CARTESIAN_POINT('Origin',(0.,2.59839E-014,117.021100936696));
#113=CARTESIAN_POINT('',(-1.591988E-014,-130.,117.021100936696));
#114=CARTESIAN_POINT('Origin',(0.,2.59839E-014,117.021100936696));
#115=CARTESIAN_POINT('Origin',(0.,1.299195E-014,58.510550468348));
#116=CARTESIAN_POINT('',(130.,-1.591988E-014,0.));
#117=CARTESIAN_POINT('Origin',(0.,0.,0.));
#118=CARTESIAN_POINT('Origin',(1.77635683940025E-014,1.326717E-014,59.75));
#119=CARTESIAN_POINT('',(112.5,-1.377682E-014,0.));
#120=CARTESIAN_POINT('Origin',(0.,0.,0.));
#121=CARTESIAN_POINT('',(112.5,1.275751E-014,119.5));
#122=CARTESIAN_POINT('Origin',(0.,2.653433E-014,119.5));
#123=CARTESIAN_POINT('Origin',(-56.25,2.653433E-014,119.5));
#124=CARTESIAN_POINT('Origin',(-121.25,0.,0.));
#125=UNCERTAINTY_MEASURE_WITH_UNIT(LENGTH_MEASURE(0.01),#127,
'DISTANCE_ACCURACY_VALUE',
'Maximum model space distance between geometric entities at asserted c
onnectivities');
#126=(
GEOMETRIC_REPRESENTATION_CONTEXT(3)
GLOBAL_UNCERTAINTY_ASSIGNED_CONTEXT((#125))
GLOBAL_UNIT_ASSIGNED_CONTEXT((#127,#130,#128))
REPRESENTATION_CONTEXT('','3D')
);
#127=(
LENGTH_UNIT()
NAMED_UNIT(*)
SI_UNIT(.MILLI.,.METRE.)
);
#128=(
NAMED_UNIT(*)
SI_UNIT($,.STERADIAN.)
SOLID_ANGLE_UNIT()
);
#129=DIMENSIONAL_EXPONENTS(0.,0.,0.,0.,0.,0.,0.);
#130=(
CONVERSION_BASED_UNIT('degree',#132)
NAMED_UNIT(#129)
PLANE_ANGLE_UNIT()
);
#131=(
NAMED_UNIT(*)
PLANE_ANGLE_UNIT()
SI_UNIT($,.RADIAN.)
);
#132=PLANE_ANGLE_MEASURE_WITH_UNIT(PLANE_ANGLE_MEASURE(0.01745329252),#131);
#133=SHAPE_DEFINITION_REPRESENTATION(#134,#135);
#134=PRODUCT_DEFINITION_SHAPE('',$,#137);
#135=SHAPE_REPRESENTATION('',(#72),#126);
#136=PRODUCT_DEFINITION_CONTEXT('3D Mechanical Parts',#140,'design');
#137=PRODUCT_DEFINITION('CIV225','CIV225',#138,#136);
#138=PRODUCT_DEFINITION_FORMATION('',$,#142);
#139=APPLICATION_PROTOCOL_DEFINITION('international standard',
'automotive_design',2009,#140);
#140=APPLICATION_CONTEXT(
'Core Data for Automotive Mechanical Design Process');
#141=PRODUCT_CONTEXT('3D Mechanical Parts',#140,'mechanical');
#142=PRODUCT('CIV225','CIV225',$,(#141));
#143=PRESENTATION_STYLE_ASSIGNMENT((#144));
#144=SURFACE_STYLE_USAGE(.BOTH.,#145);
#145=SURFACE_SIDE_STYLE($,(#146));
#146=SURFACE_STYLE_FILL_AREA(#147);
#147=FILL_AREA_STYLE($,(#148));
#148=FILL_AREA_STYLE_COLOUR($,#149);
#149=COLOUR_RGB('',0.509803921568627,0.509803921568627,0.588235294117647);
ENDSEC;
END-ISO-10303-21;
