ISO-10303-21;
HEADER;
/* Generated by software containing ST-Developer
 * from STEP Tools, Inc. (www.steptools.com) 
 */

FILE_DESCRIPTION(
/* description */ (''),
/* implementation_level */ '2;1');

FILE_NAME(
/* name */ 'C:\\Users\\mdebiase\\Desktop\\baricentro\\DIV280200.ipt.st
p',
/* time_stamp */ '2014-05-27T15:23:52+02:00',
/* author */ ('bfaro'),
/* organization */ (''),
/* preprocessor_version */ 'ST-DEVELOPER v15.2',
/* originating_system */ 'Autodesk Inventor 2014',
/* authorisation */ '');

FILE_SCHEMA (('AUTOMOTIVE_DESIGN { 1 0 10303 214 3 1 1 }'));
ENDSEC;

DATA;
#10=SHAPE_REPRESENTATION_RELATIONSHIP('SRR','None',#289,#11);
#11=ADVANCED_BREP_SHAPE_REPRESENTATION($,(#157),#280);
#12=STYLED_ITEM($,(#297),#157);
#13=CONICAL_SURFACE($,#166,119.408454094164,32.6962747085748);
#14=CONICAL_SURFACE($,#178,106.554142003713,32.6962747085747);
#15=TOROIDAL_SURFACE($,#164,114.5,1.);
#16=TOROIDAL_SURFACE($,#168,126.,1.);
#17=FACE_OUTER_BOUND($,#50,.T.);
#18=FACE_OUTER_BOUND($,#52,.T.);
#19=FACE_OUTER_BOUND($,#54,.T.);
#20=FACE_OUTER_BOUND($,#56,.T.);
#21=FACE_OUTER_BOUND($,#58,.T.);
#22=FACE_OUTER_BOUND($,#62,.T.);
#23=FACE_OUTER_BOUND($,#64,.T.);
#24=FACE_OUTER_BOUND($,#66,.T.);
#25=FACE_OUTER_BOUND($,#68,.T.);
#26=FACE_OUTER_BOUND($,#72,.T.);
#27=CYLINDRICAL_SURFACE($,#162,113.5);
#28=CYLINDRICAL_SURFACE($,#170,127.);
#29=CYLINDRICAL_SURFACE($,#174,140.);
#30=CYLINDRICAL_SURFACE($,#180,95.);
#31=CYLINDRICAL_SURFACE($,#184,100.);
#32=FACE_BOUND($,#48,.T.);
#33=FACE_BOUND($,#49,.T.);
#34=FACE_BOUND($,#51,.T.);
#35=FACE_BOUND($,#53,.T.);
#36=FACE_BOUND($,#55,.T.);
#37=FACE_BOUND($,#57,.T.);
#38=FACE_BOUND($,#59,.T.);
#39=FACE_BOUND($,#60,.T.);
#40=FACE_BOUND($,#61,.T.);
#41=FACE_BOUND($,#63,.T.);
#42=FACE_BOUND($,#65,.T.);
#43=FACE_BOUND($,#67,.T.);
#44=FACE_BOUND($,#69,.T.);
#45=FACE_BOUND($,#70,.T.);
#46=FACE_BOUND($,#71,.T.);
#47=FACE_BOUND($,#73,.T.);
#48=EDGE_LOOP($,(#113));
#49=EDGE_LOOP($,(#114));
#50=EDGE_LOOP($,(#115));
#51=EDGE_LOOP($,(#116));
#52=EDGE_LOOP($,(#117));
#53=EDGE_LOOP($,(#118));
#54=EDGE_LOOP($,(#119));
#55=EDGE_LOOP($,(#120));
#56=EDGE_LOOP($,(#121));
#57=EDGE_LOOP($,(#122));
#58=EDGE_LOOP($,(#123));
#59=EDGE_LOOP($,(#124));
#60=EDGE_LOOP($,(#125));
#61=EDGE_LOOP($,(#126));
#62=EDGE_LOOP($,(#127));
#63=EDGE_LOOP($,(#128));
#64=EDGE_LOOP($,(#129));
#65=EDGE_LOOP($,(#130));
#66=EDGE_LOOP($,(#131));
#67=EDGE_LOOP($,(#132));
#68=EDGE_LOOP($,(#133));
#69=EDGE_LOOP($,(#134));
#70=EDGE_LOOP($,(#135));
#71=EDGE_LOOP($,(#136));
#72=EDGE_LOOP($,(#137));
#73=EDGE_LOOP($,(#138));
#74=CIRCLE($,#160,100.);
#75=CIRCLE($,#161,113.5);
#76=CIRCLE($,#163,113.5);
#77=CIRCLE($,#165,113.658454094164);
#78=CIRCLE($,#167,125.158454094164);
#79=CIRCLE($,#169,127.);
#80=CIRCLE($,#171,127.);
#81=CIRCLE($,#173,140.);
#82=CIRCLE($,#175,140.);
#83=CIRCLE($,#177,118.108284007425);
#84=CIRCLE($,#179,95.);
#85=CIRCLE($,#181,95.);
#86=CIRCLE($,#183,100.);
#87=VERTEX_POINT($,#241);
#88=VERTEX_POINT($,#243);
#89=VERTEX_POINT($,#246);
#90=VERTEX_POINT($,#249);
#91=VERTEX_POINT($,#252);
#92=VERTEX_POINT($,#255);
#93=VERTEX_POINT($,#258);
#94=VERTEX_POINT($,#261);
#95=VERTEX_POINT($,#264);
#96=VERTEX_POINT($,#267);
#97=VERTEX_POINT($,#270);
#98=VERTEX_POINT($,#273);
#99=VERTEX_POINT($,#276);
#100=EDGE_CURVE($,#87,#87,#74,.T.);
#101=EDGE_CURVE($,#88,#88,#75,.T.);
#102=EDGE_CURVE($,#89,#89,#76,.T.);
#103=EDGE_CURVE($,#90,#90,#77,.T.);
#104=EDGE_CURVE($,#91,#91,#78,.T.);
#105=EDGE_CURVE($,#92,#92,#79,.T.);
#106=EDGE_CURVE($,#93,#93,#80,.T.);
#107=EDGE_CURVE($,#94,#94,#81,.T.);
#108=EDGE_CURVE($,#95,#95,#82,.T.);
#109=EDGE_CURVE($,#96,#96,#83,.T.);
#110=EDGE_CURVE($,#97,#97,#84,.T.);
#111=EDGE_CURVE($,#98,#98,#85,.T.);
#112=EDGE_CURVE($,#99,#99,#86,.T.);
#113=ORIENTED_EDGE($,*,*,#100,.T.);
#114=ORIENTED_EDGE($,*,*,#101,.F.);
#115=ORIENTED_EDGE($,*,*,#101,.T.);
#116=ORIENTED_EDGE($,*,*,#102,.F.);
#117=ORIENTED_EDGE($,*,*,#102,.T.);
#118=ORIENTED_EDGE($,*,*,#103,.F.);
#119=ORIENTED_EDGE($,*,*,#103,.T.);
#120=ORIENTED_EDGE($,*,*,#104,.F.);
#121=ORIENTED_EDGE($,*,*,#104,.T.);
#122=ORIENTED_EDGE($,*,*,#105,.F.);
#123=ORIENTED_EDGE($,*,*,#105,.T.);
#124=ORIENTED_EDGE($,*,*,#106,.F.);
#125=ORIENTED_EDGE($,*,*,#106,.T.);
#126=ORIENTED_EDGE($,*,*,#107,.F.);
#127=ORIENTED_EDGE($,*,*,#107,.T.);
#128=ORIENTED_EDGE($,*,*,#108,.F.);
#129=ORIENTED_EDGE($,*,*,#108,.T.);
#130=ORIENTED_EDGE($,*,*,#109,.F.);
#131=ORIENTED_EDGE($,*,*,#109,.T.);
#132=ORIENTED_EDGE($,*,*,#110,.F.);
#133=ORIENTED_EDGE($,*,*,#110,.T.);
#134=ORIENTED_EDGE($,*,*,#111,.F.);
#135=ORIENTED_EDGE($,*,*,#111,.T.);
#136=ORIENTED_EDGE($,*,*,#112,.F.);
#137=ORIENTED_EDGE($,*,*,#112,.T.);
#138=ORIENTED_EDGE($,*,*,#100,.F.);
#139=PLANE($,#159);
#140=PLANE($,#172);
#141=PLANE($,#176);
#142=PLANE($,#182);
#143=ADVANCED_FACE($,(#32,#33),#139,.T.);
#144=ADVANCED_FACE($,(#17,#34),#27,.T.);
#145=ADVANCED_FACE($,(#18,#35),#15,.F.);
#146=ADVANCED_FACE($,(#19,#36),#13,.T.);
#147=ADVANCED_FACE($,(#20,#37),#16,.F.);
#148=ADVANCED_FACE($,(#21,#38),#28,.F.);
#149=ADVANCED_FACE($,(#39,#40),#140,.T.);
#150=ADVANCED_FACE($,(#22,#41),#29,.T.);
#151=ADVANCED_FACE($,(#23,#42),#141,.T.);
#152=ADVANCED_FACE($,(#24,#43),#14,.F.);
#153=ADVANCED_FACE($,(#25,#44),#30,.F.);
#154=ADVANCED_FACE($,(#45,#46),#142,.T.);
#155=ADVANCED_FACE($,(#26,#47),#31,.F.);
#156=CLOSED_SHELL($,(#143,#144,#145,#146,#147,#148,#149,#150,#151,#152,
#153,#154,#155));
#157=MANIFOLD_SOLID_BREP('Solido1',#156);
#158=AXIS2_PLACEMENT_3D('placement',#239,#185,#186);
#159=AXIS2_PLACEMENT_3D($,#240,#187,#188);
#160=AXIS2_PLACEMENT_3D($,#242,#189,#190);
#161=AXIS2_PLACEMENT_3D($,#244,#191,#192);
#162=AXIS2_PLACEMENT_3D($,#245,#193,#194);
#163=AXIS2_PLACEMENT_3D($,#247,#195,#196);
#164=AXIS2_PLACEMENT_3D($,#248,#197,#198);
#165=AXIS2_PLACEMENT_3D($,#250,#199,#200);
#166=AXIS2_PLACEMENT_3D($,#251,#201,#202);
#167=AXIS2_PLACEMENT_3D($,#253,#203,#204);
#168=AXIS2_PLACEMENT_3D($,#254,#205,#206);
#169=AXIS2_PLACEMENT_3D($,#256,#207,#208);
#170=AXIS2_PLACEMENT_3D($,#257,#209,#210);
#171=AXIS2_PLACEMENT_3D($,#259,#211,#212);
#172=AXIS2_PLACEMENT_3D($,#260,#213,#214);
#173=AXIS2_PLACEMENT_3D($,#262,#215,#216);
#174=AXIS2_PLACEMENT_3D($,#263,#217,#218);
#175=AXIS2_PLACEMENT_3D($,#265,#219,#220);
#176=AXIS2_PLACEMENT_3D($,#266,#221,#222);
#177=AXIS2_PLACEMENT_3D($,#268,#223,#224);
#178=AXIS2_PLACEMENT_3D($,#269,#225,#226);
#179=AXIS2_PLACEMENT_3D($,#271,#227,#228);
#180=AXIS2_PLACEMENT_3D($,#272,#229,#230);
#181=AXIS2_PLACEMENT_3D($,#274,#231,#232);
#182=AXIS2_PLACEMENT_3D($,#275,#233,#234);
#183=AXIS2_PLACEMENT_3D($,#277,#235,#236);
#184=AXIS2_PLACEMENT_3D($,#278,#237,#238);
#185=DIRECTION('axis',(0.,0.,1.));
#186=DIRECTION('refdir',(1.,0.,0.));
#187=DIRECTION('center_axis',(0.,0.,-1.));
#188=DIRECTION('ref_axis',(-1.,0.,0.));
#189=DIRECTION('center_axis',(0.,0.,1.));
#190=DIRECTION('ref_axis',(1.,0.,0.));
#191=DIRECTION('center_axis',(0.,0.,1.));
#192=DIRECTION('ref_axis',(1.,0.,0.));
#193=DIRECTION('center_axis',(0.,0.,1.));
#194=DIRECTION('ref_axis',(0.,-1.,0.));
#195=DIRECTION('center_axis',(0.,0.,1.));
#196=DIRECTION('ref_axis',(1.,0.,0.));
#197=DIRECTION('center_axis',(0.,0.,1.));
#198=DIRECTION('ref_axis',(1.,0.,0.));
#199=DIRECTION('center_axis',(0.,0.,1.));
#200=DIRECTION('ref_axis',(1.,0.,0.));
#201=DIRECTION('center_axis',(0.,0.,1.));
#202=DIRECTION('ref_axis',(0.,-1.,0.));
#203=DIRECTION('center_axis',(0.,0.,1.));
#204=DIRECTION('ref_axis',(1.,0.,0.));
#205=DIRECTION('center_axis',(0.,0.,1.));
#206=DIRECTION('ref_axis',(1.,0.,0.));
#207=DIRECTION('center_axis',(0.,0.,1.));
#208=DIRECTION('ref_axis',(1.,0.,0.));
#209=DIRECTION('center_axis',(0.,0.,1.));
#210=DIRECTION('ref_axis',(0.,-1.,0.));
#211=DIRECTION('center_axis',(0.,0.,1.));
#212=DIRECTION('ref_axis',(1.,0.,0.));
#213=DIRECTION('center_axis',(0.,0.,-1.));
#214=DIRECTION('ref_axis',(-1.,0.,0.));
#215=DIRECTION('center_axis',(0.,0.,1.));
#216=DIRECTION('ref_axis',(1.,0.,0.));
#217=DIRECTION('center_axis',(0.,0.,1.));
#218=DIRECTION('ref_axis',(0.,-1.,0.));
#219=DIRECTION('center_axis',(0.,0.,1.));
#220=DIRECTION('ref_axis',(1.,0.,0.));
#221=DIRECTION('center_axis',(0.,0.,1.));
#222=DIRECTION('ref_axis',(1.,0.,0.));
#223=DIRECTION('center_axis',(0.,0.,1.));
#224=DIRECTION('ref_axis',(1.,0.,0.));
#225=DIRECTION('center_axis',(0.,0.,1.));
#226=DIRECTION('ref_axis',(0.,-1.,0.));
#227=DIRECTION('center_axis',(0.,0.,1.));
#228=DIRECTION('ref_axis',(1.,0.,0.));
#229=DIRECTION('center_axis',(0.,0.,1.));
#230=DIRECTION('ref_axis',(0.,-1.,0.));
#231=DIRECTION('center_axis',(0.,0.,1.));
#232=DIRECTION('ref_axis',(1.,0.,0.));
#233=DIRECTION('center_axis',(0.,0.,-1.));
#234=DIRECTION('ref_axis',(-1.,0.,0.));
#235=DIRECTION('center_axis',(0.,0.,1.));
#236=DIRECTION('ref_axis',(1.,0.,0.));
#237=DIRECTION('center_axis',(0.,0.,1.));
#238=DIRECTION('ref_axis',(0.,-1.,0.));
#239=CARTESIAN_POINT('',(0.,0.,0.));
#240=CARTESIAN_POINT('Origin',(0.,-113.5,-77.484474));
#241=CARTESIAN_POINT('',(0.,-100.,-77.484474));
#242=CARTESIAN_POINT('Origin',(0.,0.,-77.484474));
#243=CARTESIAN_POINT('',(0.,-113.5,-77.484474));
#244=CARTESIAN_POINT('Origin',(0.,0.,-77.484474));
#245=CARTESIAN_POINT('Origin',(0.,0.,-35.8355092145862));
#246=CARTESIAN_POINT('',(0.,-113.5,5.81345557082762));
#247=CARTESIAN_POINT('Origin',(0.,0.,5.81345557082762));
#248=CARTESIAN_POINT('Origin',(0.,0.,5.81345557082762));
#249=CARTESIAN_POINT('',(0.,-113.658454094164,6.35364117630968));
#250=CARTESIAN_POINT('Origin',(0.,0.,6.35364117630968));
#251=CARTESIAN_POINT('Origin',(0.,0.,15.3114677260217));
#252=CARTESIAN_POINT('',(0.,-125.158454094164,24.2692942757336));
#253=CARTESIAN_POINT('Origin',(0.,0.,24.2692942757336));
#254=CARTESIAN_POINT('Origin',(0.,0.,23.7291086702516));
#255=CARTESIAN_POINT('',(0.,-127.,23.7291086702516));
#256=CARTESIAN_POINT('Origin',(0.,0.,23.7291086702516));
#257=CARTESIAN_POINT('Origin',(0.,0.,-26.8776826648742));
#258=CARTESIAN_POINT('',(0.,-127.,-77.484474));
#259=CARTESIAN_POINT('Origin',(0.,0.,-77.484474));
#260=CARTESIAN_POINT('Origin',(0.,-140.,-77.484474));
#261=CARTESIAN_POINT('',(0.,-140.,-77.484474));
#262=CARTESIAN_POINT('Origin',(0.,0.,-77.484474));
#263=CARTESIAN_POINT('Origin',(0.,0.,-4.484474));
#264=CARTESIAN_POINT('',(0.,-140.,68.515526));
#265=CARTESIAN_POINT('Origin',(0.,0.,68.515526));
#266=CARTESIAN_POINT('Origin',(0.,-118.108284007425,68.515526));
#267=CARTESIAN_POINT('',(0.,-118.108284007425,68.515526));
#268=CARTESIAN_POINT('Origin',(0.,0.,68.515526));
#269=CARTESIAN_POINT('Origin',(0.,0.,50.515526));
#270=CARTESIAN_POINT('',(0.,-95.,32.515526));
#271=CARTESIAN_POINT('Origin',(0.,0.,32.515526));
#272=CARTESIAN_POINT('Origin',(0.,0.,30.515526));
#273=CARTESIAN_POINT('',(0.,-95.,28.515526));
#274=CARTESIAN_POINT('Origin',(0.,0.,28.515526));
#275=CARTESIAN_POINT('Origin',(0.,-100.,28.515526));
#276=CARTESIAN_POINT('',(0.,-100.,28.515526));
#277=CARTESIAN_POINT('Origin',(0.,0.,28.515526));
#278=CARTESIAN_POINT('Origin',(0.,0.,-24.484474));
#279=UNCERTAINTY_MEASURE_WITH_UNIT(LENGTH_MEASURE(0.01),#281,
'DISTANCE_ACCURACY_VALUE',
'Maximum model space distance between geometric entities at asserted c
onnectivities');
#280=(
GEOMETRIC_REPRESENTATION_CONTEXT(3)
GLOBAL_UNCERTAINTY_ASSIGNED_CONTEXT((#279))
GLOBAL_UNIT_ASSIGNED_CONTEXT((#281,#284,#282))
REPRESENTATION_CONTEXT('','3D')
);
#281=(
LENGTH_UNIT()
NAMED_UNIT(*)
SI_UNIT(.MILLI.,.METRE.)
);
#282=(
NAMED_UNIT(*)
SI_UNIT($,.STERADIAN.)
SOLID_ANGLE_UNIT()
);
#283=DIMENSIONAL_EXPONENTS(0.,0.,0.,0.,0.,0.,0.);
#284=(
CONVERSION_BASED_UNIT('degree',#286)
NAMED_UNIT(#283)
PLANE_ANGLE_UNIT()
);
#285=(
NAMED_UNIT(*)
PLANE_ANGLE_UNIT()
SI_UNIT($,.RADIAN.)
);
#286=PLANE_ANGLE_MEASURE_WITH_UNIT(PLANE_ANGLE_MEASURE(0.01745329252),#285);
#287=SHAPE_DEFINITION_REPRESENTATION(#288,#289);
#288=PRODUCT_DEFINITION_SHAPE('',$,#291);
#289=SHAPE_REPRESENTATION('',(#158),#280);
#290=PRODUCT_DEFINITION_CONTEXT('3D Mechanical Parts',#294,'design');
#291=PRODUCT_DEFINITION('DIV280200','DIV280200',#292,#290);
#292=PRODUCT_DEFINITION_FORMATION('',$,#296);
#293=APPLICATION_PROTOCOL_DEFINITION('international standard',
'automotive_design',2009,#294);
#294=APPLICATION_CONTEXT(
'Core Data for Automotive Mechanical Design Process');
#295=PRODUCT_CONTEXT('3D Mechanical Parts',#294,'mechanical');
#296=PRODUCT('DIV280200','DIV280200',$,(#295));
#297=PRESENTATION_STYLE_ASSIGNMENT((#298));
#298=SURFACE_STYLE_USAGE(.BOTH.,#299);
#299=SURFACE_SIDE_STYLE($,(#300));
#300=SURFACE_STYLE_FILL_AREA(#301);
#301=FILL_AREA_STYLE($,(#302));
#302=FILL_AREA_STYLE_COLOUR($,#303);
#303=COLOUR_RGB('',0.509803921568627,0.509803921568627,0.588235294117647);
ENDSEC;
END-ISO-10303-21;
