ISO-10303-21;
HEADER;
/* Generated by software containing ST-Developer
 * from STEP Tools, Inc. (www.steptools.com) 
 */

FILE_DESCRIPTION(
/* description */ (''),
/* implementation_level */ '2;1');

FILE_NAME(
/* name */ 'C:\\Users\\Gabriele\\Desktop\\catalogo\\EL50\\EL500400.stp',

/* time_stamp */ '2016-10-17T17:04:26+02:00',
/* author */ ('Gabriele'),
/* organization */ (''),
/* preprocessor_version */ 'ST-DEVELOPER v16.5',
/* originating_system */ 'Autodesk Inventor 2017',
/* authorisation */ '');

FILE_SCHEMA (('AUTOMOTIVE_DESIGN { 1 0 10303 214 3 1 1 }'));
ENDSEC;

DATA;
#10=MECHANICAL_DESIGN_GEOMETRIC_PRESENTATION_REPRESENTATION('',(#13),#413);
#11=SHAPE_REPRESENTATION_RELATIONSHIP('SRR','None',#422,#12);
#12=ADVANCED_BREP_SHAPE_REPRESENTATION('',(#14),#412);
#13=STYLED_ITEM('',(#431),#14);
#14=MANIFOLD_SOLID_BREP('Solido1',#189);
#15=PLANE('',#200);
#16=PLANE('',#210);
#17=PLANE('',#218);
#18=PLANE('',#219);
#19=TOROIDAL_SURFACE('',#197,20.5,0.5);
#20=TOROIDAL_SURFACE('',#204,24.5,0.5);
#21=TOROIDAL_SURFACE('',#207,20.5,0.5);
#22=TOROIDAL_SURFACE('',#214,24.5,0.5);
#23=TOROIDAL_SURFACE('',#215,23.,19.5);
#24=FACE_BOUND('',#74,.T.);
#25=FACE_BOUND('',#76,.T.);
#26=FACE_BOUND('',#78,.T.);
#27=FACE_BOUND('',#80,.T.);
#28=FACE_BOUND('',#82,.T.);
#29=FACE_BOUND('',#84,.T.);
#30=FACE_BOUND('',#86,.T.);
#31=FACE_BOUND('',#88,.T.);
#32=FACE_BOUND('',#90,.T.);
#33=FACE_BOUND('',#92,.T.);
#34=FACE_BOUND('',#94,.T.);
#35=FACE_BOUND('',#96,.T.);
#36=FACE_BOUND('',#98,.T.);
#37=CYLINDRICAL_SURFACE('',#195,25.);
#38=CYLINDRICAL_SURFACE('',#202,20.);
#39=CYLINDRICAL_SURFACE('',#206,25.);
#40=CYLINDRICAL_SURFACE('',#212,20.);
#41=CIRCLE('',#193,25.);
#42=CIRCLE('',#194,25.);
#43=CIRCLE('',#196,25.);
#44=CIRCLE('',#198,20.);
#45=CIRCLE('',#199,20.5);
#46=CIRCLE('',#201,24.5);
#47=CIRCLE('',#203,20.);
#48=CIRCLE('',#205,25.);
#49=CIRCLE('',#208,20.);
#50=CIRCLE('',#209,20.5);
#51=CIRCLE('',#211,24.5);
#52=CIRCLE('',#213,20.);
#53=CIRCLE('',#216,19.5);
#54=CIRCLE('',#217,19.5);
#55=(
BOUNDED_SURFACE()
B_SPLINE_SURFACE(2,2,((#344,#345,#346),(#347,#348,#349),(#350,#351,#352),
(#353,#354,#355),(#356,#357,#358),(#359,#360,#361),(#362,#363,#364),(#365,
#366,#367),(#368,#369,#370)),.UNSPECIFIED.,.F.,.F.,.F.)
B_SPLINE_SURFACE_WITH_KNOTS((3,2,2,2,3),(3,3),(-2.69661776107098,-1.34830888053768,
-4.38116209977579E-12,1.34830888052892,2.69661776106222),(0.,1.57079632679499),
 .UNSPECIFIED.)
GEOMETRIC_REPRESENTATION_ITEM()
RATIONAL_B_SPLINE_SURFACE(((1.,0.707106781186514,1.),(0.781235059986486,
0.552416608617097,0.781235059986486),(1.,0.707106781186514,1.),(0.781235059986486,
0.552416608617097,0.781235059986486),(1.,0.707106781186514,1.),(0.781235059986486,
0.552416608617098,0.781235059986486),(1.,0.707106781186514,1.),(0.781235059986486,
0.552416608617097,0.781235059986486),(1.,0.707106781186514,1.)))
REPRESENTATION_ITEM('')
SURFACE()
);
#56=FACE_OUTER_BOUND('',#71,.T.);
#57=FACE_OUTER_BOUND('',#72,.T.);
#58=FACE_OUTER_BOUND('',#73,.T.);
#59=FACE_OUTER_BOUND('',#75,.T.);
#60=FACE_OUTER_BOUND('',#77,.T.);
#61=FACE_OUTER_BOUND('',#79,.T.);
#62=FACE_OUTER_BOUND('',#81,.T.);
#63=FACE_OUTER_BOUND('',#83,.T.);
#64=FACE_OUTER_BOUND('',#85,.T.);
#65=FACE_OUTER_BOUND('',#87,.T.);
#66=FACE_OUTER_BOUND('',#89,.T.);
#67=FACE_OUTER_BOUND('',#91,.T.);
#68=FACE_OUTER_BOUND('',#93,.T.);
#69=FACE_OUTER_BOUND('',#95,.T.);
#70=FACE_OUTER_BOUND('',#97,.T.);
#71=EDGE_LOOP('',(#137,#138,#139,#140));
#72=EDGE_LOOP('',(#141,#142,#143,#144));
#73=EDGE_LOOP('',(#145));
#74=EDGE_LOOP('',(#146,#147));
#75=EDGE_LOOP('',(#148));
#76=EDGE_LOOP('',(#149));
#77=EDGE_LOOP('',(#150));
#78=EDGE_LOOP('',(#151));
#79=EDGE_LOOP('',(#152));
#80=EDGE_LOOP('',(#153));
#81=EDGE_LOOP('',(#154));
#82=EDGE_LOOP('',(#155));
#83=EDGE_LOOP('',(#156,#157));
#84=EDGE_LOOP('',(#158));
#85=EDGE_LOOP('',(#159));
#86=EDGE_LOOP('',(#160));
#87=EDGE_LOOP('',(#161));
#88=EDGE_LOOP('',(#162));
#89=EDGE_LOOP('',(#163));
#90=EDGE_LOOP('',(#164));
#91=EDGE_LOOP('',(#165));
#92=EDGE_LOOP('',(#166));
#93=EDGE_LOOP('',(#167));
#94=EDGE_LOOP('',(#168));
#95=EDGE_LOOP('',(#169));
#96=EDGE_LOOP('',(#170));
#97=EDGE_LOOP('',(#171));
#98=EDGE_LOOP('',(#172));
#99=ELLIPSE('',#191,35.7106426713382,25.);
#100=ELLIPSE('',#192,35.7106426713382,25.);
#101=B_SPLINE_CURVE_WITH_KNOTS('',3,(#308,#309,#310,#311,#312,#313,#314,
#315,#316,#317,#318,#319,#320,#321,#322,#323),.UNSPECIFIED.,.F.,.F.,(4,
3,3,3,3,4),(-0.000322898471924064,0.0155346497518832,0.0308986592843654,
0.0346161030893577,0.0496905792476441,0.0696090628388133),.UNSPECIFIED.);
#102=B_SPLINE_CURVE_WITH_KNOTS('',3,(#327,#328,#329,#330,#331,#332,#333,
#334,#335,#336,#337,#338,#339,#340,#341,#342),.UNSPECIFIED.,.F.,.F.,(4,
3,3,3,3,4),(-0.000322898467599662,0.0155346503576619,0.0308986604737413,
0.034616102901168,0.0496905803602878,0.0696090625601974),.UNSPECIFIED.);
#103=VERTEX_POINT('',#306);
#104=VERTEX_POINT('',#307);
#105=VERTEX_POINT('',#324);
#106=VERTEX_POINT('',#326);
#107=VERTEX_POINT('',#374);
#108=VERTEX_POINT('',#377);
#109=VERTEX_POINT('',#379);
#110=VERTEX_POINT('',#382);
#111=VERTEX_POINT('',#385);
#112=VERTEX_POINT('',#388);
#113=VERTEX_POINT('',#392);
#114=VERTEX_POINT('',#394);
#115=VERTEX_POINT('',#397);
#116=VERTEX_POINT('',#400);
#117=VERTEX_POINT('',#404);
#118=VERTEX_POINT('',#406);
#119=EDGE_CURVE('',#103,#104,#101,.T.);
#120=EDGE_CURVE('',#103,#105,#99,.T.);
#121=EDGE_CURVE('',#106,#105,#102,.T.);
#122=EDGE_CURVE('',#106,#104,#100,.T.);
#123=EDGE_CURVE('',#105,#103,#41,.T.);
#124=EDGE_CURVE('',#106,#104,#42,.T.);
#125=EDGE_CURVE('',#107,#107,#43,.T.);
#126=EDGE_CURVE('',#108,#108,#44,.T.);
#127=EDGE_CURVE('',#109,#109,#45,.T.);
#128=EDGE_CURVE('',#110,#110,#46,.T.);
#129=EDGE_CURVE('',#111,#111,#47,.T.);
#130=EDGE_CURVE('',#112,#112,#48,.T.);
#131=EDGE_CURVE('',#113,#113,#49,.T.);
#132=EDGE_CURVE('',#114,#114,#50,.T.);
#133=EDGE_CURVE('',#115,#115,#51,.T.);
#134=EDGE_CURVE('',#116,#116,#52,.T.);
#135=EDGE_CURVE('',#117,#117,#53,.T.);
#136=EDGE_CURVE('',#118,#118,#54,.T.);
#137=ORIENTED_EDGE('',*,*,#119,.F.);
#138=ORIENTED_EDGE('',*,*,#120,.T.);
#139=ORIENTED_EDGE('',*,*,#121,.F.);
#140=ORIENTED_EDGE('',*,*,#122,.T.);
#141=ORIENTED_EDGE('',*,*,#121,.T.);
#142=ORIENTED_EDGE('',*,*,#123,.T.);
#143=ORIENTED_EDGE('',*,*,#119,.T.);
#144=ORIENTED_EDGE('',*,*,#124,.F.);
#145=ORIENTED_EDGE('',*,*,#125,.F.);
#146=ORIENTED_EDGE('',*,*,#120,.F.);
#147=ORIENTED_EDGE('',*,*,#123,.F.);
#148=ORIENTED_EDGE('',*,*,#126,.T.);
#149=ORIENTED_EDGE('',*,*,#127,.T.);
#150=ORIENTED_EDGE('',*,*,#128,.F.);
#151=ORIENTED_EDGE('',*,*,#127,.F.);
#152=ORIENTED_EDGE('',*,*,#129,.F.);
#153=ORIENTED_EDGE('',*,*,#126,.F.);
#154=ORIENTED_EDGE('',*,*,#130,.T.);
#155=ORIENTED_EDGE('',*,*,#128,.T.);
#156=ORIENTED_EDGE('',*,*,#122,.F.);
#157=ORIENTED_EDGE('',*,*,#124,.T.);
#158=ORIENTED_EDGE('',*,*,#130,.F.);
#159=ORIENTED_EDGE('',*,*,#131,.T.);
#160=ORIENTED_EDGE('',*,*,#132,.T.);
#161=ORIENTED_EDGE('',*,*,#133,.F.);
#162=ORIENTED_EDGE('',*,*,#132,.F.);
#163=ORIENTED_EDGE('',*,*,#134,.T.);
#164=ORIENTED_EDGE('',*,*,#131,.F.);
#165=ORIENTED_EDGE('',*,*,#133,.T.);
#166=ORIENTED_EDGE('',*,*,#125,.T.);
#167=ORIENTED_EDGE('',*,*,#135,.F.);
#168=ORIENTED_EDGE('',*,*,#136,.F.);
#169=ORIENTED_EDGE('',*,*,#129,.T.);
#170=ORIENTED_EDGE('',*,*,#135,.T.);
#171=ORIENTED_EDGE('',*,*,#134,.F.);
#172=ORIENTED_EDGE('',*,*,#136,.T.);
#173=B_SPLINE_SURFACE_WITH_KNOTS('',3,3,((#281,#282,#283,#284,#285),(#286,
#287,#288,#289,#290),(#291,#292,#293,#294,#295),(#296,#297,#298,#299,#300),
(#301,#302,#303,#304,#305)),.UNSPECIFIED.,.F.,.F.,.F.,(4,1,4),(4,1,4),(0.,
0.5,1.),(-0.447915349007252,0.0639879070056468,0.447915349015321),
 .UNSPECIFIED.);
#174=ADVANCED_FACE('',(#56),#173,.T.);
#175=ADVANCED_FACE('',(#57),#55,.F.);
#176=ADVANCED_FACE('',(#58,#24),#37,.T.);
#177=ADVANCED_FACE('',(#59,#25),#19,.T.);
#178=ADVANCED_FACE('',(#60,#26),#15,.T.);
#179=ADVANCED_FACE('',(#61,#27),#38,.F.);
#180=ADVANCED_FACE('',(#62,#28),#20,.T.);
#181=ADVANCED_FACE('',(#63,#29),#39,.T.);
#182=ADVANCED_FACE('',(#64,#30),#21,.T.);
#183=ADVANCED_FACE('',(#65,#31),#16,.F.);
#184=ADVANCED_FACE('',(#66,#32),#40,.F.);
#185=ADVANCED_FACE('',(#67,#33),#22,.T.);
#186=ADVANCED_FACE('',(#68,#34),#23,.F.);
#187=ADVANCED_FACE('',(#69,#35),#17,.T.);
#188=ADVANCED_FACE('',(#70,#36),#18,.F.);
#189=CLOSED_SHELL('',(#174,#175,#176,#177,#178,#179,#180,#181,#182,#183,
#184,#185,#186,#187,#188));
#190=AXIS2_PLACEMENT_3D('placement',#280,#220,#221);
#191=AXIS2_PLACEMENT_3D('',#325,#222,#223);
#192=AXIS2_PLACEMENT_3D('',#343,#224,#225);
#193=AXIS2_PLACEMENT_3D('',#371,#226,#227);
#194=AXIS2_PLACEMENT_3D('',#372,#228,#229);
#195=AXIS2_PLACEMENT_3D('',#373,#230,#231);
#196=AXIS2_PLACEMENT_3D('',#375,#232,#233);
#197=AXIS2_PLACEMENT_3D('',#376,#234,#235);
#198=AXIS2_PLACEMENT_3D('',#378,#236,#237);
#199=AXIS2_PLACEMENT_3D('',#380,#238,#239);
#200=AXIS2_PLACEMENT_3D('',#381,#240,#241);
#201=AXIS2_PLACEMENT_3D('',#383,#242,#243);
#202=AXIS2_PLACEMENT_3D('',#384,#244,#245);
#203=AXIS2_PLACEMENT_3D('',#386,#246,#247);
#204=AXIS2_PLACEMENT_3D('',#387,#248,#249);
#205=AXIS2_PLACEMENT_3D('',#389,#250,#251);
#206=AXIS2_PLACEMENT_3D('',#390,#252,#253);
#207=AXIS2_PLACEMENT_3D('',#391,#254,#255);
#208=AXIS2_PLACEMENT_3D('',#393,#256,#257);
#209=AXIS2_PLACEMENT_3D('',#395,#258,#259);
#210=AXIS2_PLACEMENT_3D('',#396,#260,#261);
#211=AXIS2_PLACEMENT_3D('',#398,#262,#263);
#212=AXIS2_PLACEMENT_3D('',#399,#264,#265);
#213=AXIS2_PLACEMENT_3D('',#401,#266,#267);
#214=AXIS2_PLACEMENT_3D('',#402,#268,#269);
#215=AXIS2_PLACEMENT_3D('',#403,#270,#271);
#216=AXIS2_PLACEMENT_3D('',#405,#272,#273);
#217=AXIS2_PLACEMENT_3D('',#407,#274,#275);
#218=AXIS2_PLACEMENT_3D('',#408,#276,#277);
#219=AXIS2_PLACEMENT_3D('',#409,#278,#279);
#220=DIRECTION('axis',(0.,0.,1.));
#221=DIRECTION('refdir',(1.,0.,0.));
#222=DIRECTION('center_axis',(0.714072839144579,0.700071410926058,0.));
#223=DIRECTION('ref_axis',(0.700071410926057,-0.714072839144579,0.));
#224=DIRECTION('center_axis',(-0.700071410926058,-0.714072839144579,0.));
#225=DIRECTION('ref_axis',(0.714072839144579,-0.700071410926057,0.));
#226=DIRECTION('center_axis',(0.,1.,0.));
#227=DIRECTION('ref_axis',(-1.,0.,0.));
#228=DIRECTION('center_axis',(1.,6.12323399573677E-17,0.));
#229=DIRECTION('ref_axis',(-6.12323399573677E-17,1.,0.));
#230=DIRECTION('center_axis',(0.,1.,0.));
#231=DIRECTION('ref_axis',(-1.,0.,0.));
#232=DIRECTION('center_axis',(0.,-1.,0.));
#233=DIRECTION('ref_axis',(-1.,0.,0.));
#234=DIRECTION('center_axis',(-1.,-6.12323399573677E-17,0.));
#235=DIRECTION('ref_axis',(0.,0.,1.));
#236=DIRECTION('center_axis',(-1.,-6.12323399573677E-17,0.));
#237=DIRECTION('ref_axis',(-6.24500451351651E-17,1.,0.));
#238=DIRECTION('center_axis',(1.,6.12323399573677E-17,0.));
#239=DIRECTION('ref_axis',(-6.12323399573676E-17,1.,0.));
#240=DIRECTION('center_axis',(1.,6.12323399573677E-17,0.));
#241=DIRECTION('ref_axis',(0.,0.,1.));
#242=DIRECTION('center_axis',(-1.,-6.12323399573677E-17,0.));
#243=DIRECTION('ref_axis',(-6.12323399573677E-17,1.,0.));
#244=DIRECTION('center_axis',(1.,2.22044604925031E-16,0.));
#245=DIRECTION('ref_axis',(-2.22044604925031E-16,1.,0.));
#246=DIRECTION('center_axis',(1.,2.22044604925031E-16,0.));
#247=DIRECTION('ref_axis',(-2.22044604925031E-16,1.,0.));
#248=DIRECTION('center_axis',(1.,6.12323399573677E-17,0.));
#249=DIRECTION('ref_axis',(0.,0.,-1.));
#250=DIRECTION('center_axis',(1.,6.12323399573677E-17,0.));
#251=DIRECTION('ref_axis',(-6.10622663543836E-17,1.,0.));
#252=DIRECTION('center_axis',(1.,0.,0.));
#253=DIRECTION('ref_axis',(0.,1.,0.));
#254=DIRECTION('center_axis',(0.,1.,0.));
#255=DIRECTION('ref_axis',(0.,0.,1.));
#256=DIRECTION('center_axis',(0.,1.,0.));
#257=DIRECTION('ref_axis',(-1.,0.,0.));
#258=DIRECTION('center_axis',(0.,-1.,0.));
#259=DIRECTION('ref_axis',(-1.,0.,0.));
#260=DIRECTION('center_axis',(0.,1.,0.));
#261=DIRECTION('ref_axis',(0.,0.,1.));
#262=DIRECTION('center_axis',(0.,1.,0.));
#263=DIRECTION('ref_axis',(-1.,0.,0.));
#264=DIRECTION('center_axis',(0.,1.,0.));
#265=DIRECTION('ref_axis',(-1.,0.,0.));
#266=DIRECTION('center_axis',(0.,1.,0.));
#267=DIRECTION('ref_axis',(-1.,0.,0.));
#268=DIRECTION('center_axis',(0.,1.,0.));
#269=DIRECTION('ref_axis',(0.,0.,1.));
#270=DIRECTION('center_axis',(0.,0.,-1.));
#271=DIRECTION('ref_axis',(-1.,0.,0.));
#272=DIRECTION('center_axis',(-1.,-2.22044604925031E-16,0.));
#273=DIRECTION('ref_axis',(-2.22044604925031E-16,1.,0.));
#274=DIRECTION('center_axis',(0.,1.,0.));
#275=DIRECTION('ref_axis',(-1.,0.,0.));
#276=DIRECTION('center_axis',(1.,2.22044604925031E-16,0.));
#277=DIRECTION('ref_axis',(0.,0.,1.));
#278=DIRECTION('center_axis',(0.,1.,0.));
#279=DIRECTION('ref_axis',(0.,0.,1.));
#280=CARTESIAN_POINT('',(0.,0.,0.));
#281=CARTESIAN_POINT('Ctrl Pts',(22.5337974115308,26.0155266402386,-10.8271868098823));
#282=CARTESIAN_POINT('Ctrl Pts',(24.381288138677,24.1310860985495,-6.98214538811637));
#283=CARTESIAN_POINT('Ctrl Pts',(25.8491866520499,22.633829614911,0.585808313676062));
#284=CARTESIAN_POINT('Ctrl Pts',(23.9194154568263,24.6021962340371,7.94340574375085));
#285=CARTESIAN_POINT('Ctrl Pts',(22.5337974114434,26.0155266403277,10.8271868100641));
#286=CARTESIAN_POINT('Ctrl Pts',(22.5536211343226,26.1212166585789,-10.7859292088842));
#287=CARTESIAN_POINT('Ctrl Pts',(24.3898155523531,24.2531399743525,-6.94576946239696));
#288=CARTESIAN_POINT('Ctrl Pts',(25.8386912841777,22.7757520956123,0.580872872455943));
#289=CARTESIAN_POINT('Ctrl Pts',(23.9307669477819,24.7201591454738,7.90580939921122));
#290=CARTESIAN_POINT('Ctrl Pts',(22.5536211342358,26.1212166586672,10.7859292090658));
#291=CARTESIAN_POINT('Ctrl Pts',(22.6679329658521,26.3320670341479,-10.7395437359175));
#292=CARTESIAN_POINT('Ctrl Pts',(24.5038935427058,24.4961064572942,-6.903884295259));
#293=CARTESIAN_POINT('Ctrl Pts',(25.9422972135615,23.0577027864385,0.574915832451615));
#294=CARTESIAN_POINT('Ctrl Pts',(24.044903398429,24.955096601571,7.86279915561546));
#295=CARTESIAN_POINT('Ctrl Pts',(22.6679329657652,26.3320670342347,10.7395437360988));
#296=CARTESIAN_POINT('Ctrl Pts',(22.8787833414211,26.4463788656774,-10.7859292088842));
#297=CARTESIAN_POINT('Ctrl Pts',(24.7468600256475,24.6101844476469,-6.94576946239696));
#298=CARTESIAN_POINT('Ctrl Pts',(26.2242479043863,23.1613087158237,0.580872872469397));
#299=CARTESIAN_POINT('Ctrl Pts',(24.2798408545262,25.0692330522181,7.90580939921122));
#300=CARTESIAN_POINT('Ctrl Pts',(22.8787833413328,26.4463788657642,10.7859292090658));
#301=CARTESIAN_POINT('Ctrl Pts',(22.9844733597614,26.4662025884692,-10.8271868098823));
#302=CARTESIAN_POINT('Ctrl Pts',(24.8689139014505,24.618711861323,-6.98214538811637));
#303=CARTESIAN_POINT('Ctrl Pts',(26.3661703850872,23.1508133479519,0.585808313694287));
#304=CARTESIAN_POINT('Ctrl Pts',(24.3978037659629,25.0805845431737,7.94340574375085));
#305=CARTESIAN_POINT('Ctrl Pts',(22.9844733596723,26.4662025885566,10.8271868100641));
#306=CARTESIAN_POINT('',(22.5490196078431,26.,10.7954487968359));
#307=CARTESIAN_POINT('',(23.,26.4509803921569,10.7954487968359));
#308=CARTESIAN_POINT('Ctrl Pts',(22.5490194082338,26.0000002036016,10.795448657061));
#309=CARTESIAN_POINT('Ctrl Pts',(22.5536348812292,26.0517664631515,10.785806222307));
#310=CARTESIAN_POINT('Ctrl Pts',(22.5665480756453,26.1027506464975,10.7780858351485));
#311=CARTESIAN_POINT('Ctrl Pts',(22.5871743588461,26.1510853566959,10.77242051299));
#312=CARTESIAN_POINT('Ctrl Pts',(22.6071586847485,26.1979157328523,10.76693151416));
#313=CARTESIAN_POINT('Ctrl Pts',(22.6340921248671,26.24157760225,10.7634493554817));
#314=CARTESIAN_POINT('Ctrl Pts',(22.667350465275,26.2803631654146,10.7622841330601));
#315=CARTESIAN_POINT('Ctrl Pts',(22.6753975841767,26.2897476396435,10.7620021982655));
#316=CARTESIAN_POINT('Ctrl Pts',(22.6837819072399,26.2988034568198,10.7618589281561));
#317=CARTESIAN_POINT('Ctrl Pts',(22.692489275565,26.307510724435,10.7618588233448));
#318=CARTESIAN_POINT('Ctrl Pts',(22.7277982198566,26.3428192603417,10.7618583983281));
#319=CARTESIAN_POINT('Ctrl Pts',(22.76839013345,26.3724319116956,10.7641835494462));
#320=CARTESIAN_POINT('Ctrl Pts',(22.812722775787,26.3956569343857,10.7685218703198));
#321=CARTESIAN_POINT('Ctrl Pts',(22.8713011966668,26.4263450477569,10.7742542601041));
#322=CARTESIAN_POINT('Ctrl Pts',(22.9349578458073,26.4451814598773,10.7833333763685));
#323=CARTESIAN_POINT('Ctrl Pts',(22.9999997963984,26.4509805917662,10.795448657061));
#324=CARTESIAN_POINT('',(22.5490196078431,26.,-10.7954487968359));
#325=CARTESIAN_POINT('Origin',(0.,49.,0.));
#326=CARTESIAN_POINT('',(23.,26.4509803921569,-10.7954487968359));
#327=CARTESIAN_POINT('Ctrl Pts',(22.9999994347438,26.4509809463296,-10.7954486471658));
#328=CARTESIAN_POINT('Ctrl Pts',(22.9482333889465,26.4463652556758,-10.7858062210959));
#329=CARTESIAN_POINT('Ctrl Pts',(22.8972492781475,26.4334519913715,-10.7780858341209));
#330=CARTESIAN_POINT('Ctrl Pts',(22.8489146022305,26.4128256719858,-10.7724205122219));
#331=CARTESIAN_POINT('Ctrl Pts',(22.802084259286,26.3928413110236,-10.766931513643));
#332=CARTESIAN_POINT('Ctrl Pts',(22.7584223870989,26.3659078700926,-10.7634493548289));
#333=CARTESIAN_POINT('Ctrl Pts',(22.7196368239031,26.3326495264103,-10.7622841327601));
#334=CARTESIAN_POINT('Ctrl Pts',(22.7102523535008,26.3246024100041,-10.762002198166));
#335=CARTESIAN_POINT('Ctrl Pts',(22.7011965397897,26.3162180898192,-10.7618589281599));
#336=CARTESIAN_POINT('Ctrl Pts',(22.6924892753401,26.3075107246599,-10.7618588233486));
#337=CARTESIAN_POINT('Ctrl Pts',(22.657180736139,26.2722017770743,-10.761858398332));
#338=CARTESIAN_POINT('Ctrl Pts',(22.627568085372,26.2316098562815,-10.7641835499625));
#339=CARTESIAN_POINT('Ctrl Pts',(22.6043430450767,26.1872772266403,-10.7685218715864));
#340=CARTESIAN_POINT('Ctrl Pts',(22.5736549132348,26.1286988316824,-10.774254261467));
#341=CARTESIAN_POINT('Ctrl Pts',(22.5548184581586,26.0650422374248,-10.7833333792196));
#342=CARTESIAN_POINT('Ctrl Pts',(22.5490190536705,26.0000005652561,-10.7954486471658));
#343=CARTESIAN_POINT('Origin',(0.,49.,0.));
#344=CARTESIAN_POINT('Ctrl Pts',(22.5655368206191,26.,10.7608804471234));
#345=CARTESIAN_POINT('Ctrl Pts',(22.5655368206191,26.4344631793809,10.7608804471234));
#346=CARTESIAN_POINT('Ctrl Pts',(23.,26.4344631793809,10.7608804471234));
#347=CARTESIAN_POINT('Ctrl Pts',(13.9671781049173,26.,28.7916151206909));
#348=CARTESIAN_POINT('Ctrl Pts',(13.9671781049168,35.0328218950832,28.7916151206909));
#349=CARTESIAN_POINT('Ctrl Pts',(23.,35.0328218950827,28.7916151206909));
#350=CARTESIAN_POINT('Ctrl Pts',(-5.51641094749761,26.,24.3837899076072));
#351=CARTESIAN_POINT('Ctrl Pts',(-5.51641094749896,54.516410947499,24.3837899076072));
#352=CARTESIAN_POINT('Ctrl Pts',(23.,54.5164109474976,24.3837899076072));
#353=CARTESIAN_POINT('Ctrl Pts',(-24.9999999999125,26.,19.9759646945236));
#354=CARTESIAN_POINT('Ctrl Pts',(-24.9999999999148,73.9999999999148,19.9759646945236));
#355=CARTESIAN_POINT('Ctrl Pts',(23.,73.9999999999125,19.9759646945236));
#356=CARTESIAN_POINT('Ctrl Pts',(-25.,26.,1.09529052494395E-10));
#357=CARTESIAN_POINT('Ctrl Pts',(-25.0000000000023,74.0000000000023,1.09529052494395E-10));
#358=CARTESIAN_POINT('Ctrl Pts',(23.,74.,1.09529052494395E-10));
#359=CARTESIAN_POINT('Ctrl Pts',(-25.0000000000875,26.,-19.9759646943045));
#360=CARTESIAN_POINT('Ctrl Pts',(-25.0000000000898,74.0000000000898,-19.9759646943045));
#361=CARTESIAN_POINT('Ctrl Pts',(23.,74.0000000000875,-19.9759646943045));
#362=CARTESIAN_POINT('Ctrl Pts',(-5.51641094771127,26.,-24.3837899075589));
#363=CARTESIAN_POINT('Ctrl Pts',(-5.51641094771262,54.5164109477126,-24.3837899075589));
#364=CARTESIAN_POINT('Ctrl Pts',(23.,54.5164109477113,-24.3837899075589));
#365=CARTESIAN_POINT('Ctrl Pts',(13.967178104665,26.,-28.7916151208133));
#366=CARTESIAN_POINT('Ctrl Pts',(13.9671781046646,35.0328218953354,-28.7916151208133));
#367=CARTESIAN_POINT('Ctrl Pts',(23.,35.032821895335,-28.7916151208133));
#368=CARTESIAN_POINT('Ctrl Pts',(22.5655368205248,26.,-10.7608804473211));
#369=CARTESIAN_POINT('Ctrl Pts',(22.5655368205248,26.4344631794752,-10.7608804473211));
#370=CARTESIAN_POINT('Ctrl Pts',(23.,26.4344631794752,-10.7608804473211));
#371=CARTESIAN_POINT('Origin',(0.,26.,0.));
#372=CARTESIAN_POINT('Origin',(23.,49.,0.));
#373=CARTESIAN_POINT('Origin',(0.,0.,0.));
#374=CARTESIAN_POINT('',(25.,0.5,3.06161699786838E-15));
#375=CARTESIAN_POINT('Origin',(0.,0.5,0.));
#376=CARTESIAN_POINT('Origin',(48.5,49.,0.));
#377=CARTESIAN_POINT('',(48.5,29.,2.44929359829471E-15));
#378=CARTESIAN_POINT('Origin',(48.5,49.,0.));
#379=CARTESIAN_POINT('',(49.,28.5,-2.51052593825207E-15));
#380=CARTESIAN_POINT('Origin',(49.,49.,0.));
#381=CARTESIAN_POINT('Origin',(49.,49.,0.));
#382=CARTESIAN_POINT('',(49.,24.5,3.00038465791102E-15));
#383=CARTESIAN_POINT('Origin',(49.,49.,0.));
#384=CARTESIAN_POINT('Origin',(49.,49.,0.));
#385=CARTESIAN_POINT('',(23.,29.,2.44929359829471E-15));
#386=CARTESIAN_POINT('Origin',(23.,49.,0.));
#387=CARTESIAN_POINT('Origin',(48.5,49.,0.));
#388=CARTESIAN_POINT('',(48.5,24.,-3.06161699786838E-15));
#389=CARTESIAN_POINT('Origin',(48.5,49.,0.));
#390=CARTESIAN_POINT('Origin',(23.,49.,0.));
#391=CARTESIAN_POINT('Origin',(0.,0.5,0.));
#392=CARTESIAN_POINT('',(20.,0.5,-2.44929359829471E-15));
#393=CARTESIAN_POINT('Origin',(0.,0.5,0.));
#394=CARTESIAN_POINT('',(20.5,0.,2.51052593825207E-15));
#395=CARTESIAN_POINT('Origin',(0.,0.,0.));
#396=CARTESIAN_POINT('Origin',(-1.43937264275587E-15,0.,0.));
#397=CARTESIAN_POINT('',(24.5,0.,-3.00038465791102E-15));
#398=CARTESIAN_POINT('Origin',(0.,0.,0.));
#399=CARTESIAN_POINT('Origin',(0.,0.,0.));
#400=CARTESIAN_POINT('',(20.,26.,2.44929359829471E-15));
#401=CARTESIAN_POINT('Origin',(0.,26.,0.));
#402=CARTESIAN_POINT('Origin',(0.,0.5,0.));
#403=CARTESIAN_POINT('Origin',(23.,26.,0.));
#404=CARTESIAN_POINT('',(23.,68.5,0.));
#405=CARTESIAN_POINT('Origin',(23.,49.,0.));
#406=CARTESIAN_POINT('',(-19.5,26.,0.));
#407=CARTESIAN_POINT('Origin',(0.,26.,0.));
#408=CARTESIAN_POINT('Origin',(23.,49.,0.));
#409=CARTESIAN_POINT('Origin',(-9.4425648294133E-16,26.,0.));
#410=UNCERTAINTY_MEASURE_WITH_UNIT(LENGTH_MEASURE(0.01),#414,
'DISTANCE_ACCURACY_VALUE',
'Maximum model space distance between geometric entities at asserted c
onnectivities');
#411=UNCERTAINTY_MEASURE_WITH_UNIT(LENGTH_MEASURE(1.E-6),#414,
'DISTANCE_ACCURACY_VALUE',
'Maximum model space distance between geometric entities at asserted c
onnectivities');
#412=(
GEOMETRIC_REPRESENTATION_CONTEXT(3)
GLOBAL_UNCERTAINTY_ASSIGNED_CONTEXT((#410))
GLOBAL_UNIT_ASSIGNED_CONTEXT((#414,#417,#415))
REPRESENTATION_CONTEXT('','3D')
);
#413=(
GEOMETRIC_REPRESENTATION_CONTEXT(3)
GLOBAL_UNCERTAINTY_ASSIGNED_CONTEXT((#411))
GLOBAL_UNIT_ASSIGNED_CONTEXT((#414,#417,#415))
REPRESENTATION_CONTEXT('','3D')
);
#414=(
LENGTH_UNIT()
NAMED_UNIT(*)
SI_UNIT(.MILLI.,.METRE.)
);
#415=(
NAMED_UNIT(*)
SI_UNIT($,.STERADIAN.)
SOLID_ANGLE_UNIT()
);
#416=DIMENSIONAL_EXPONENTS(0.,0.,0.,0.,0.,0.,0.);
#417=(
CONVERSION_BASED_UNIT('degree',#419)
NAMED_UNIT(#416)
PLANE_ANGLE_UNIT()
);
#418=(
NAMED_UNIT(*)
PLANE_ANGLE_UNIT()
SI_UNIT($,.RADIAN.)
);
#419=PLANE_ANGLE_MEASURE_WITH_UNIT(PLANE_ANGLE_MEASURE(0.01745329252),#418);
#420=SHAPE_DEFINITION_REPRESENTATION(#421,#422);
#421=PRODUCT_DEFINITION_SHAPE('',$,#424);
#422=SHAPE_REPRESENTATION('',(#190),#412);
#423=PRODUCT_DEFINITION_CONTEXT('part definition',#428,'design');
#424=PRODUCT_DEFINITION('EL500400','EL500400',#425,#423);
#425=PRODUCT_DEFINITION_FORMATION('',$,#430);
#426=PRODUCT_RELATED_PRODUCT_CATEGORY('EL500400','EL500400',(#430));
#427=APPLICATION_PROTOCOL_DEFINITION('international standard',
'automotive_design',2009,#428);
#428=APPLICATION_CONTEXT(
'Core Data for Automotive Mechanical Design Process');
#429=PRODUCT_CONTEXT('part definition',#428,'mechanical');
#430=PRODUCT('EL500400','EL500400',$,(#429));
#431=PRESENTATION_STYLE_ASSIGNMENT((#432));
#432=SURFACE_STYLE_USAGE(.BOTH.,#433);
#433=SURFACE_SIDE_STYLE('',(#434));
#434=SURFACE_STYLE_FILL_AREA(#435);
#435=FILL_AREA_STYLE('',(#436));
#436=FILL_AREA_STYLE_COLOUR('',#437);
#437=COLOUR_RGB('',0.8,0.8,0.8);
ENDSEC;
END-ISO-10303-21;
