ISO-10303-21;
HEADER;
FILE_DESCRIPTION( ( 'STEP AP214' ), '1' );
FILE_NAME( 'p:/temp/worker_16/temp/exporttempdir_4048_469_nfqjE/format_0/22050002507(architecture400).stp', '2021-11-17T11:34:17', ( 'License CC BY-ND 4.0' ), ( 'CADENAS' ), ' ', 'PARTsolutions', ' ' );
FILE_SCHEMA( ( 'AUTOMOTIVE_DESIGN { 1 0 10303 214 1 1 1 1 }' ) );
ENDSEC;
DATA;
#1 = MECHANICAL_DESIGN_GEOMETRIC_PRESENTATION_REPRESENTATION( ' ', ( #10, #11, #12, #13, #14, #15, #16, #17, #18, #19, #20, #21 ), #6 );
#2 = PRODUCT_DEFINITION_CONTEXT( '', #22, 'design' );
#3 = APPLICATION_PROTOCOL_DEFINITION( 'international standard', 'automotive_design', 2001, #22 );
#4 = PRODUCT_CATEGORY_RELATIONSHIP( 'NONE', 'NONE', #23, #24 );
#5 = SHAPE_DEFINITION_REPRESENTATION( #25, #26 );
#6 =  ( GEOMETRIC_REPRESENTATION_CONTEXT( 3 )GLOBAL_UNCERTAINTY_ASSIGNED_CONTEXT( ( #29 ) )GLOBAL_UNIT_ASSIGNED_CONTEXT( ( #31, #32, #33 ) )REPRESENTATION_CONTEXT( 'NONE', 'WORKSPACE' ) );
#10 = STYLED_ITEM( '', ( #35 ), #36 );
#11 = STYLED_ITEM( '', ( #37 ), #38 );
#12 = STYLED_ITEM( '', ( #39 ), #40 );
#13 = STYLED_ITEM( '', ( #41 ), #42 );
#14 = STYLED_ITEM( '', ( #43 ), #44 );
#15 = STYLED_ITEM( '', ( #45 ), #46 );
#16 = STYLED_ITEM( '', ( #47 ), #48 );
#17 = STYLED_ITEM( '', ( #49 ), #50 );
#18 = STYLED_ITEM( '', ( #51 ), #52 );
#19 = STYLED_ITEM( '', ( #53 ), #54 );
#20 = STYLED_ITEM( '', ( #55 ), #56 );
#21 = STYLED_ITEM( '', ( #57 ), #58 );
#22 = APPLICATION_CONTEXT( 'core data for automotive mechanical design processes' );
#23 = PRODUCT_CATEGORY( 'part', 'NONE' );
#24 = PRODUCT_RELATED_PRODUCT_CATEGORY( 'detail', ' ', ( #59 ) );
#25 = PRODUCT_DEFINITION_SHAPE( 'NONE', 'NONE', #60 );
#26 = ADVANCED_BREP_SHAPE_REPRESENTATION( '_22050002507(architecture400)', ( #61, #62 ), #6 );
#29 = UNCERTAINTY_MEASURE_WITH_UNIT( LENGTH_MEASURE( 0.00100000000000000 ), #31, '', '' );
#31 =  ( CONVERSION_BASED_UNIT( 'MILLIMETRE', #65 )LENGTH_UNIT(  )NAMED_UNIT( #68 ) );
#32 =  ( NAMED_UNIT( #70 )PLANE_ANGLE_UNIT(  )SI_UNIT( $, .RADIAN. ) );
#33 =  ( NAMED_UNIT( #70 )SI_UNIT( $, .STERADIAN. )SOLID_ANGLE_UNIT(  ) );
#35 = PRESENTATION_STYLE_ASSIGNMENT( ( #76 ) );
#36 = ADVANCED_FACE( '', ( #77, #78 ), #79, .T. );
#37 = PRESENTATION_STYLE_ASSIGNMENT( ( #80 ) );
#38 = ADVANCED_FACE( '', ( #81, #82 ), #83, .T. );
#39 = PRESENTATION_STYLE_ASSIGNMENT( ( #84 ) );
#40 = ADVANCED_FACE( '', ( #85, #86 ), #87, .F. );
#41 = PRESENTATION_STYLE_ASSIGNMENT( ( #88 ) );
#42 = ADVANCED_FACE( '', ( #89 ), #90, .F. );
#43 = PRESENTATION_STYLE_ASSIGNMENT( ( #91 ) );
#44 = ADVANCED_FACE( '', ( #92, #93 ), #94, .T. );
#45 = PRESENTATION_STYLE_ASSIGNMENT( ( #95 ) );
#46 = ADVANCED_FACE( '', ( #96, #97 ), #98, .F. );
#47 = PRESENTATION_STYLE_ASSIGNMENT( ( #99 ) );
#48 = ADVANCED_FACE( '', ( #100, #101 ), #102, .F. );
#49 = PRESENTATION_STYLE_ASSIGNMENT( ( #103 ) );
#50 = ADVANCED_FACE( '', ( #104 ), #105, .T. );
#51 = PRESENTATION_STYLE_ASSIGNMENT( ( #106 ) );
#52 = ADVANCED_FACE( '', ( #107, #108 ), #109, .F. );
#53 = PRESENTATION_STYLE_ASSIGNMENT( ( #110 ) );
#54 = ADVANCED_FACE( '', ( #111, #112 ), #113, .F. );
#55 = PRESENTATION_STYLE_ASSIGNMENT( ( #114 ) );
#56 = ADVANCED_FACE( '', ( #115, #116 ), #117, .F. );
#57 = PRESENTATION_STYLE_ASSIGNMENT( ( #118 ) );
#58 = ADVANCED_FACE( '', ( #119, #120 ), #121, .T. );
#59 = PRODUCT( '_22050002507(architecture400)', '_22050002507(architecture400)', 'PART-_22050002507(architecture400)-DESC', ( #122 ) );
#60 = PRODUCT_DEFINITION( 'NONE', 'NONE', #123, #2 );
#61 = MANIFOLD_SOLID_BREP( '_22050002507(architecture400)', #124 );
#62 = AXIS2_PLACEMENT_3D( '', #125, #126, #127 );
#65 = LENGTH_MEASURE_WITH_UNIT( LENGTH_MEASURE( 1.00000000000000 ), #128 );
#68 = DIMENSIONAL_EXPONENTS( 1.00000000000000, 0.000000000000000, 0.000000000000000, 0.000000000000000, 0.000000000000000, 0.000000000000000, 0.000000000000000 );
#70 = DIMENSIONAL_EXPONENTS( 0.000000000000000, 0.000000000000000, 0.000000000000000, 0.000000000000000, 0.000000000000000, 0.000000000000000, 0.000000000000000 );
#76 = SURFACE_STYLE_USAGE( .BOTH., #129 );
#77 = FACE_OUTER_BOUND( '', #130, .T. );
#78 = FACE_OUTER_BOUND( '', #131, .T. );
#79 = CYLINDRICAL_SURFACE( '', #132, 17.5000000000000 );
#80 = SURFACE_STYLE_USAGE( .BOTH., #133 );
#81 = FACE_OUTER_BOUND( '', #134, .T. );
#82 = FACE_OUTER_BOUND( '', #135, .T. );
#83 = CYLINDRICAL_SURFACE( '', #136, 17.5000000000000 );
#84 = SURFACE_STYLE_USAGE( .BOTH., #137 );
#85 = FACE_OUTER_BOUND( '', #138, .T. );
#86 = FACE_OUTER_BOUND( '', #139, .T. );
#87 = CYLINDRICAL_SURFACE( '', #140, 10.8333333333000 );
#88 = SURFACE_STYLE_USAGE( .BOTH., #141 );
#89 = FACE_OUTER_BOUND( '', #142, .T. );
#90 = SPHERICAL_SURFACE( '', #143, 10.8333333333000 );
#91 = SURFACE_STYLE_USAGE( .BOTH., #144 );
#92 = FACE_OUTER_BOUND( '', #145, .T. );
#93 = FACE_BOUND( '', #146, .T. );
#94 = PLANE( '', #147 );
#95 = SURFACE_STYLE_USAGE( .BOTH., #148 );
#96 = FACE_OUTER_BOUND( '', #149, .T. );
#97 = FACE_OUTER_BOUND( '', #150, .T. );
#98 = CYLINDRICAL_SURFACE( '', #151, 12.5000000000000 );
#99 = SURFACE_STYLE_USAGE( .BOTH., #152 );
#100 = FACE_OUTER_BOUND( '', #153, .T. );
#101 = FACE_OUTER_BOUND( '', #154, .T. );
#102 = CYLINDRICAL_SURFACE( '', #155, 12.5000000000000 );
#103 = SURFACE_STYLE_USAGE( .BOTH., #156 );
#104 = FACE_OUTER_BOUND( '', #157, .T. );
#105 = SPHERICAL_SURFACE( '', #158, 17.5000000000000 );
#106 = SURFACE_STYLE_USAGE( .BOTH., #159 );
#107 = FACE_BOUND( '', #160, .T. );
#108 = FACE_OUTER_BOUND( '', #161, .T. );
#109 = PLANE( '', #162 );
#110 = SURFACE_STYLE_USAGE( .BOTH., #163 );
#111 = FACE_BOUND( '', #164, .T. );
#112 = FACE_OUTER_BOUND( '', #165, .T. );
#113 = PLANE( '', #166 );
#114 = SURFACE_STYLE_USAGE( .BOTH., #167 );
#115 = FACE_OUTER_BOUND( '', #168, .T. );
#116 = FACE_OUTER_BOUND( '', #169, .T. );
#117 = CYLINDRICAL_SURFACE( '', #170, 10.8333333333000 );
#118 = SURFACE_STYLE_USAGE( .BOTH., #171 );
#119 = FACE_BOUND( '', #172, .T. );
#120 = FACE_OUTER_BOUND( '', #173, .T. );
#121 = PLANE( '', #174 );
#122 = PRODUCT_CONTEXT( '', #22, 'mechanical' );
#123 = PRODUCT_DEFINITION_FORMATION_WITH_SPECIFIED_SOURCE( ' ', 'NONE', #59, .NOT_KNOWN. );
#124 = CLOSED_SHELL( '', ( #52, #38, #50, #36, #56, #58, #48, #54, #46, #44, #40, #42 ) );
#125 = CARTESIAN_POINT( '', ( 0.000000000000000, 0.000000000000000, 0.000000000000000 ) );
#126 = DIRECTION( '', ( 0.000000000000000, 0.000000000000000, 1.00000000000000 ) );
#127 = DIRECTION( '', ( 1.00000000000000, 0.000000000000000, 0.000000000000000 ) );
#128 =  ( LENGTH_UNIT(  )NAMED_UNIT( #68 )SI_UNIT( .MILLI., .METRE. ) );
#129 = SURFACE_SIDE_STYLE( '', ( #176 ) );
#130 = EDGE_LOOP( '', ( #177 ) );
#131 = EDGE_LOOP( '', ( #178, #179 ) );
#132 = AXIS2_PLACEMENT_3D( '', #180, #181, #182 );
#133 = SURFACE_SIDE_STYLE( '', ( #183 ) );
#134 = EDGE_LOOP( '', ( #184 ) );
#135 = EDGE_LOOP( '', ( #185, #186 ) );
#136 = AXIS2_PLACEMENT_3D( '', #187, #188, #189 );
#137 = SURFACE_SIDE_STYLE( '', ( #190 ) );
#138 = EDGE_LOOP( '', ( #191 ) );
#139 = EDGE_LOOP( '', ( #192, #193 ) );
#140 = AXIS2_PLACEMENT_3D( '', #194, #195, #196 );
#141 = SURFACE_SIDE_STYLE( '', ( #197 ) );
#142 = EDGE_LOOP( '', ( #198, #199 ) );
#143 = AXIS2_PLACEMENT_3D( '', #200, #201, #202 );
#144 = SURFACE_SIDE_STYLE( '', ( #203 ) );
#145 = EDGE_LOOP( '', ( #204 ) );
#146 = EDGE_LOOP( '', ( #205 ) );
#147 = AXIS2_PLACEMENT_3D( '', #206, #207, #208 );
#148 = SURFACE_SIDE_STYLE( '', ( #209 ) );
#149 = EDGE_LOOP( '', ( #210 ) );
#150 = EDGE_LOOP( '', ( #211 ) );
#151 = AXIS2_PLACEMENT_3D( '', #212, #213, #214 );
#152 = SURFACE_SIDE_STYLE( '', ( #215 ) );
#153 = EDGE_LOOP( '', ( #216 ) );
#154 = EDGE_LOOP( '', ( #217 ) );
#155 = AXIS2_PLACEMENT_3D( '', #218, #219, #220 );
#156 = SURFACE_SIDE_STYLE( '', ( #221 ) );
#157 = EDGE_LOOP( '', ( #222, #223 ) );
#158 = AXIS2_PLACEMENT_3D( '', #224, #225, #226 );
#159 = SURFACE_SIDE_STYLE( '', ( #227 ) );
#160 = EDGE_LOOP( '', ( #228 ) );
#161 = EDGE_LOOP( '', ( #229 ) );
#162 = AXIS2_PLACEMENT_3D( '', #230, #231, #232 );
#163 = SURFACE_SIDE_STYLE( '', ( #233 ) );
#164 = EDGE_LOOP( '', ( #234 ) );
#165 = EDGE_LOOP( '', ( #235 ) );
#166 = AXIS2_PLACEMENT_3D( '', #236, #237, #238 );
#167 = SURFACE_SIDE_STYLE( '', ( #239 ) );
#168 = EDGE_LOOP( '', ( #240, #241 ) );
#169 = EDGE_LOOP( '', ( #242 ) );
#170 = AXIS2_PLACEMENT_3D( '', #243, #244, #245 );
#171 = SURFACE_SIDE_STYLE( '', ( #246 ) );
#172 = EDGE_LOOP( '', ( #247 ) );
#173 = EDGE_LOOP( '', ( #248 ) );
#174 = AXIS2_PLACEMENT_3D( '', #249, #250, #251 );
#176 = SURFACE_STYLE_FILL_AREA( #252 );
#177 = ORIENTED_EDGE( '', *, *, #253, .F. );
#178 = ORIENTED_EDGE( '', *, *, #254, .T. );
#179 = ORIENTED_EDGE( '', *, *, #255, .T. );
#180 = CARTESIAN_POINT( '', ( 19.4454364826301, 0.000000000000000, 28.9454364826301 ) );
#181 = DIRECTION( '', ( -0.707106781186547, 0.000000000000000, -0.707106781186548 ) );
#182 = DIRECTION( '', ( 0.707106781186548, 0.000000000000000, -0.707106781186547 ) );
#183 = SURFACE_STYLE_FILL_AREA( #256 );
#184 = ORIENTED_EDGE( '', *, *, #257, .T. );
#185 = ORIENTED_EDGE( '', *, *, #255, .F. );
#186 = ORIENTED_EDGE( '', *, *, #258, .F. );
#187 = CARTESIAN_POINT( '', ( 0.000000000000000, 0.000000000000000, 9.50000000000000 ) );
#188 = DIRECTION( '', ( 0.000000000000000, -0.000000000000000, 1.00000000000000 ) );
#189 = DIRECTION( '', ( -1.00000000000000, 0.000000000000000, 0.000000000000000 ) );
#190 = SURFACE_STYLE_FILL_AREA( #259 );
#191 = ORIENTED_EDGE( '', *, *, #260, .T. );
#192 = ORIENTED_EDGE( '', *, *, #261, .F. );
#193 = ORIENTED_EDGE( '', *, *, #262, .F. );
#194 = CARTESIAN_POINT( '', ( 20.1525432638166, 0.000000000000000, 29.6525432638166 ) );
#195 = DIRECTION( '', ( -0.707106781186548, 0.000000000000000, -0.707106781186547 ) );
#196 = DIRECTION( '', ( 0.707106781186548, 0.000000000000000, -0.707106781186548 ) );
#197 = SURFACE_STYLE_FILL_AREA( #263 );
#198 = ORIENTED_EDGE( '', *, *, #264, .F. );
#199 = ORIENTED_EDGE( '', *, *, #262, .T. );
#200 = CARTESIAN_POINT( '', ( -8.67361737988404E-15, 0.000000000000000, 9.50000000000001 ) );
#201 = DIRECTION( '', ( 0.000000000000000, 0.000000000000000, 1.00000000000000 ) );
#202 = DIRECTION( '', ( 1.00000000000000, 0.000000000000000, 0.000000000000000 ) );
#203 = SURFACE_STYLE_FILL_AREA( #265 );
#204 = ORIENTED_EDGE( '', *, *, #266, .T. );
#205 = ORIENTED_EDGE( '', *, *, #260, .F. );
#206 = CARTESIAN_POINT( '', ( -0.942809041582064, 0.000000000000000, 23.8778378841265 ) );
#207 = DIRECTION( '', ( 0.707106781186548, -0.000000000000000, 0.707106781186547 ) );
#208 = DIRECTION( '', ( 0.707106781186547, 0.000000000000000, -0.707106781186548 ) );
#209 = SURFACE_STYLE_FILL_AREA( #267 );
#210 = ORIENTED_EDGE( '', *, *, #268, .T. );
#211 = ORIENTED_EDGE( '', *, *, #266, .F. );
#212 = CARTESIAN_POINT( '', ( 20.1525432638166, 0.000000000000000, 29.6525432638166 ) );
#213 = DIRECTION( '', ( -0.707106781186548, 0.000000000000000, -0.707106781186547 ) );
#214 = DIRECTION( '', ( 0.707106781186547, 0.000000000000000, -0.707106781186548 ) );
#215 = SURFACE_STYLE_FILL_AREA( #269 );
#216 = ORIENTED_EDGE( '', *, *, #270, .T. );
#217 = ORIENTED_EDGE( '', *, *, #271, .T. );
#218 = CARTESIAN_POINT( '', ( 0.000000000000000, 0.000000000000000, 20.3333333333333 ) );
#219 = DIRECTION( '', ( -0.000000000000000, 0.000000000000000, -1.00000000000000 ) );
#220 = DIRECTION( '', ( 1.00000000000000, 0.000000000000000, 0.000000000000000 ) );
#221 = SURFACE_STYLE_FILL_AREA( #272 );
#222 = ORIENTED_EDGE( '', *, *, #258, .T. );
#223 = ORIENTED_EDGE( '', *, *, #254, .F. );
#224 = CARTESIAN_POINT( '', ( 0.000000000000000, 0.000000000000000, 9.50000000000000 ) );
#225 = DIRECTION( '', ( 0.000000000000000, 0.000000000000000, 1.00000000000000 ) );
#226 = DIRECTION( '', ( 1.00000000000000, 0.000000000000000, 0.000000000000000 ) );
#227 = SURFACE_STYLE_FILL_AREA( #273 );
#228 = ORIENTED_EDGE( '', *, *, #271, .F. );
#229 = ORIENTED_EDGE( '', *, *, #257, .F. );
#230 = CARTESIAN_POINT( '', ( 0.000000000000000, 0.000000000000000, -18.0000000000000 ) );
#231 = DIRECTION( '', ( 0.000000000000000, 0.000000000000000, 1.00000000000000 ) );
#232 = DIRECTION( '', ( 1.00000000000000, 0.000000000000000, -0.000000000000000 ) );
#233 = SURFACE_STYLE_FILL_AREA( #274 );
#234 = ORIENTED_EDGE( '', *, *, #268, .F. );
#235 = ORIENTED_EDGE( '', *, *, #253, .T. );
#236 = CARTESIAN_POINT( '', ( 7.07106781186547, 0.000000000000000, 41.3198051533946 ) );
#237 = DIRECTION( '', ( -0.707106781186547, 0.000000000000000, -0.707106781186548 ) );
#238 = DIRECTION( '', ( -0.707106781186548, 0.000000000000000, 0.707106781186547 ) );
#239 = SURFACE_STYLE_FILL_AREA( #275 );
#240 = ORIENTED_EDGE( '', *, *, #261, .T. );
#241 = ORIENTED_EDGE( '', *, *, #264, .T. );
#242 = ORIENTED_EDGE( '', *, *, #276, .F. );
#243 = CARTESIAN_POINT( '', ( 0.000000000000000, 0.000000000000000, 20.3333333333333 ) );
#244 = DIRECTION( '', ( -0.000000000000000, 0.000000000000000, -1.00000000000000 ) );
#245 = DIRECTION( '', ( 1.00000000000000, 0.000000000000000, 0.000000000000000 ) );
#246 = SURFACE_STYLE_FILL_AREA( #277 );
#247 = ORIENTED_EDGE( '', *, *, #276, .T. );
#248 = ORIENTED_EDGE( '', *, *, #270, .F. );
#249 = CARTESIAN_POINT( '', ( -12.5000000000000, 0.000000000000000, 0.000000000000000 ) );
#250 = DIRECTION( '', ( 0.000000000000000, 0.000000000000000, -1.00000000000000 ) );
#251 = DIRECTION( '', ( -1.00000000000000, 0.000000000000000, 0.000000000000000 ) );
#252 = FILL_AREA_STYLE( '', ( #278 ) );
#253 = EDGE_CURVE( '', #279, #279, #280, .T. );
#254 = EDGE_CURVE( '', #281, #282, #283, .T. );
#255 = EDGE_CURVE( '', #282, #281, #284, .F. );
#256 = FILL_AREA_STYLE( '', ( #285 ) );
#257 = EDGE_CURVE( '', #286, #286, #287, .T. );
#258 = EDGE_CURVE( '', #281, #282, #288, .T. );
#259 = FILL_AREA_STYLE( '', ( #289 ) );
#260 = EDGE_CURVE( '', #290, #290, #291, .T. );
#261 = EDGE_CURVE( '', #292, #293, #294, .T. );
#262 = EDGE_CURVE( '', #293, #292, #295, .T. );
#263 = FILL_AREA_STYLE( '', ( #296 ) );
#264 = EDGE_CURVE( '', #293, #292, #297, .T. );
#265 = FILL_AREA_STYLE( '', ( #298 ) );
#266 = EDGE_CURVE( '', #299, #299, #300, .T. );
#267 = FILL_AREA_STYLE( '', ( #301 ) );
#268 = EDGE_CURVE( '', #302, #302, #303, .F. );
#269 = FILL_AREA_STYLE( '', ( #304 ) );
#270 = EDGE_CURVE( '', #305, #305, #306, .T. );
#271 = EDGE_CURVE( '', #307, #307, #308, .F. );
#272 = FILL_AREA_STYLE( '', ( #309 ) );
#273 = FILL_AREA_STYLE( '', ( #310 ) );
#274 = FILL_AREA_STYLE( '', ( #311 ) );
#275 = FILL_AREA_STYLE( '', ( #312 ) );
#276 = EDGE_CURVE( '', #313, #313, #314, .T. );
#277 = FILL_AREA_STYLE( '', ( #315 ) );
#278 = FILL_AREA_STYLE_COLOUR( '', #316 );
#279 = VERTEX_POINT( '', #317 );
#280 = CIRCLE( '', #318, 17.5000000000000 );
#281 = VERTEX_POINT( '', #319 );
#282 = VERTEX_POINT( '', #320 );
#283 = CIRCLE( '', #321, 17.5000000000000 );
#284 = ELLIPSE( '', #322, 18.9418635051000, 17.5000000000000 );
#285 = FILL_AREA_STYLE_COLOUR( '', #323 );
#286 = VERTEX_POINT( '', #324 );
#287 = CIRCLE( '', #325, 17.5000000000000 );
#288 = CIRCLE( '', #326, 17.5000000000000 );
#289 = FILL_AREA_STYLE_COLOUR( '', #327 );
#290 = VERTEX_POINT( '', #328 );
#291 = CIRCLE( '', #329, 10.8333333333000 );
#292 = VERTEX_POINT( '', #330 );
#293 = VERTEX_POINT( '', #331 );
#294 = ELLIPSE( '', #332, 11.7259155032000, 10.8333333333000 );
#295 = CIRCLE( '', #333, 10.8333333333000 );
#296 = FILL_AREA_STYLE_COLOUR( '', #334 );
#297 = CIRCLE( '', #335, 10.8333333333000 );
#298 = FILL_AREA_STYLE_COLOUR( '', #336 );
#299 = VERTEX_POINT( '', #337 );
#300 = CIRCLE( '', #338, 12.5000000000000 );
#301 = FILL_AREA_STYLE_COLOUR( '', #339 );
#302 = VERTEX_POINT( '', #340 );
#303 = CIRCLE( '', #341, 12.5000000000000 );
#304 = FILL_AREA_STYLE_COLOUR( '', #342 );
#305 = VERTEX_POINT( '', #343 );
#306 = CIRCLE( '', #344, 12.5000000000000 );
#307 = VERTEX_POINT( '', #345 );
#308 = CIRCLE( '', #346, 12.5000000000000 );
#309 = FILL_AREA_STYLE_COLOUR( '', #347 );
#310 = FILL_AREA_STYLE_COLOUR( '', #348 );
#311 = FILL_AREA_STYLE_COLOUR( '', #349 );
#312 = FILL_AREA_STYLE_COLOUR( '', #350 );
#313 = VERTEX_POINT( '', #351 );
#314 = CIRCLE( '', #352, 10.8333333333000 );
#315 = FILL_AREA_STYLE_COLOUR( '', #353 );
#316 = COLOUR_RGB( '', 0.689999997600000, 0.689999997600000, 0.689999997600000 );
#317 = CARTESIAN_POINT( '', ( 31.8198051533946, 0.000000000000000, 16.5710678118655 ) );
#318 = AXIS2_PLACEMENT_3D( '', #354, #355, #356 );
#319 = CARTESIAN_POINT( '', ( 3.57467557599686E-15, 17.5000000000000, 9.50000000000000 ) );
#320 = CARTESIAN_POINT( '', ( 2.63071560108119E-17, -17.5000000000000, 9.49999999999999 ) );
#321 = AXIS2_PLACEMENT_3D( '', #357, #358, #359 );
#322 = AXIS2_PLACEMENT_3D( '', #360, #361, #362 );
#323 = COLOUR_RGB( '', 0.689999997600000, 0.689999997600000, 0.689999997600000 );
#324 = CARTESIAN_POINT( '', ( 17.5000000000000, 0.000000000000000, -18.0000000000000 ) );
#325 = AXIS2_PLACEMENT_3D( '', #363, #364, #365 );
#326 = AXIS2_PLACEMENT_3D( '', #366, #367, #368 );
#327 = COLOUR_RGB( '', 0.689999997600000, 0.689999997600000, 0.689999997600000 );
#328 = CARTESIAN_POINT( '', ( 14.3778378841265, 0.000000000000000, 8.55719095841793 ) );
#329 = AXIS2_PLACEMENT_3D( '', #369, #370, #371 );
#330 = CARTESIAN_POINT( '', ( 4.33680868994202E-16, -10.8333333333333, 9.50000000000000 ) );
#331 = CARTESIAN_POINT( '', ( 1.40946282423116E-15, 10.8333333333333, 9.50000000000000 ) );
#332 = AXIS2_PLACEMENT_3D( '', #372, #373, #374 );
#333 = AXIS2_PLACEMENT_3D( '', #375, #376, #377 );
#334 = COLOUR_RGB( '', 0.689999997600000, 0.689999997600000, 0.689999997600000 );
#335 = AXIS2_PLACEMENT_3D( '', #378, #379, #380 );
#336 = COLOUR_RGB( '', 0.689999997600000, 0.689999997600000, 0.689999997600000 );
#337 = CARTESIAN_POINT( '', ( 15.5563491861040, 0.000000000000000, 7.37867965644035 ) );
#338 = AXIS2_PLACEMENT_3D( '', #381, #382, #383 );
#339 = COLOUR_RGB( '', 0.689999997600000, 0.689999997600000, 0.689999997600000 );
#340 = CARTESIAN_POINT( '', ( 10.6066017177982, 0.000000000000000, 37.7842712474619 ) );
#341 = AXIS2_PLACEMENT_3D( '', #384, #385, #386 );
#342 = COLOUR_RGB( '', 0.689999997600000, 0.689999997600000, 0.689999997600000 );
#343 = CARTESIAN_POINT( '', ( 12.5000000000000, 0.000000000000000, 0.000000000000000 ) );
#344 = AXIS2_PLACEMENT_3D( '', #387, #388, #389 );
#345 = CARTESIAN_POINT( '', ( 12.5000000000000, 0.000000000000000, -18.0000000000000 ) );
#346 = AXIS2_PLACEMENT_3D( '', #390, #391, #392 );
#347 = COLOUR_RGB( '', 0.689999997600000, 0.689999997600000, 0.689999997600000 );
#348 = COLOUR_RGB( '', 0.689999997600000, 0.689999997600000, 0.689999997600000 );
#349 = COLOUR_RGB( '', 0.689999997600000, 0.689999997600000, 0.689999997600000 );
#350 = COLOUR_RGB( '', 0.689999997600000, 0.689999997600000, 0.689999997600000 );
#351 = CARTESIAN_POINT( '', ( 10.8333333333333, 0.000000000000000, 0.000000000000000 ) );
#352 = AXIS2_PLACEMENT_3D( '', #393, #394, #395 );
#353 = COLOUR_RGB( '', 0.689999997600000, 0.689999997600000, 0.689999997600000 );
#354 = CARTESIAN_POINT( '', ( 19.4454364826301, 0.000000000000000, 28.9454364826301 ) );
#355 = DIRECTION( '', ( 0.707106781186547, -0.000000000000000, 0.707106781186548 ) );
#356 = DIRECTION( '', ( 0.707106781186548, 0.000000000000000, -0.707106781186547 ) );
#357 = CARTESIAN_POINT( '', ( 0.000000000000000, 0.000000000000000, 9.50000000000000 ) );
#358 = DIRECTION( '', ( 0.707106781186547, -0.000000000000000, 0.707106781186548 ) );
#359 = DIRECTION( '', ( 0.707106781186548, 0.000000000000000, -0.707106781186547 ) );
#360 = CARTESIAN_POINT( '', ( 0.000000000000000, 0.000000000000000, 9.50000000000000 ) );
#361 = DIRECTION( '', ( -0.382683432365090, 0.000000000000000, -0.923879532511287 ) );
#362 = DIRECTION( '', ( 0.923879532511287, 0.000000000000000, -0.382683432365090 ) );
#363 = CARTESIAN_POINT( '', ( 0.000000000000000, 0.000000000000000, -18.0000000000000 ) );
#364 = DIRECTION( '', ( 0.000000000000000, 0.000000000000000, 1.00000000000000 ) );
#365 = DIRECTION( '', ( 1.00000000000000, 0.000000000000000, 0.000000000000000 ) );
#366 = CARTESIAN_POINT( '', ( 0.000000000000000, 0.000000000000000, 9.50000000000000 ) );
#367 = DIRECTION( '', ( 0.000000000000000, 0.000000000000000, 1.00000000000000 ) );
#368 = DIRECTION( '', ( 1.00000000000000, 0.000000000000000, 0.000000000000000 ) );
#369 = CARTESIAN_POINT( '', ( 6.71751442127220, 0.000000000000000, 16.2175144212722 ) );
#370 = DIRECTION( '', ( 0.707106781186548, -0.000000000000000, 0.707106781186547 ) );
#371 = DIRECTION( '', ( 0.707106781186548, 0.000000000000000, -0.707106781186548 ) );
#372 = CARTESIAN_POINT( '', ( 0.000000000000000, 0.000000000000000, 9.50000000000000 ) );
#373 = DIRECTION( '', ( 0.382683432365090, 0.000000000000000, 0.923879532511287 ) );
#374 = DIRECTION( '', ( -0.923879532511287, 0.000000000000000, 0.382683432365090 ) );
#375 = CARTESIAN_POINT( '', ( -4.33680868994202E-15, 0.000000000000000, 9.50000000000001 ) );
#376 = DIRECTION( '', ( 0.707106781186548, -0.000000000000000, 0.707106781186547 ) );
#377 = DIRECTION( '', ( 0.707106781186548, 0.000000000000000, -0.707106781186548 ) );
#378 = CARTESIAN_POINT( '', ( 0.000000000000000, 0.000000000000000, 9.50000000000000 ) );
#379 = DIRECTION( '', ( 0.000000000000000, -0.000000000000000, 1.00000000000000 ) );
#380 = DIRECTION( '', ( 1.00000000000000, 0.000000000000000, 0.000000000000000 ) );
#381 = CARTESIAN_POINT( '', ( 6.71751442127220, 0.000000000000000, 16.2175144212722 ) );
#382 = DIRECTION( '', ( 0.707106781186548, -0.000000000000000, 0.707106781186547 ) );
#383 = DIRECTION( '', ( 0.707106781186547, 0.000000000000000, -0.707106781186548 ) );
#384 = CARTESIAN_POINT( '', ( 19.4454364826301, 0.000000000000000, 28.9454364826301 ) );
#385 = DIRECTION( '', ( -0.707106781186547, 0.000000000000000, -0.707106781186548 ) );
#386 = DIRECTION( '', ( -0.707106781186548, 0.000000000000000, 0.707106781186547 ) );
#387 = CARTESIAN_POINT( '', ( 0.000000000000000, 0.000000000000000, 0.000000000000000 ) );
#388 = DIRECTION( '', ( 0.000000000000000, -0.000000000000000, 1.00000000000000 ) );
#389 = DIRECTION( '', ( 1.00000000000000, 0.000000000000000, 0.000000000000000 ) );
#390 = CARTESIAN_POINT( '', ( 0.000000000000000, 0.000000000000000, -18.0000000000000 ) );
#391 = DIRECTION( '', ( 0.000000000000000, 0.000000000000000, 1.00000000000000 ) );
#392 = DIRECTION( '', ( 1.00000000000000, 0.000000000000000, -0.000000000000000 ) );
#393 = CARTESIAN_POINT( '', ( 0.000000000000000, 0.000000000000000, 0.000000000000000 ) );
#394 = DIRECTION( '', ( 0.000000000000000, -0.000000000000000, 1.00000000000000 ) );
#395 = DIRECTION( '', ( 1.00000000000000, 0.000000000000000, 0.000000000000000 ) );
ENDSEC;
END-ISO-10303-21;
