ISO-10303-21;
HEADER;
/* Generated by software containing ST-Developer
 * from STEP Tools, Inc. (www.steptools.com) 
 */

FILE_DESCRIPTION(
/* description */ (''),
/* implementation_level */ '2;1');

FILE_NAME(
/* name */ 'C:\\Users\\Gabriele\\Desktop\\catalogo\\TR40\\TR40090H.stp',

/* time_stamp */ '2016-10-17T15:23:52+02:00',
/* author */ ('Gabriele'),
/* organization */ (''),
/* preprocessor_version */ 'ST-DEVELOPER v16.5',
/* originating_system */ 'Autodesk Inventor 2017',
/* authorisation */ '');

FILE_SCHEMA (('AUTOMOTIVE_DESIGN { 1 0 10303 214 3 1 1 }'));
ENDSEC;

DATA;
#10=MECHANICAL_DESIGN_GEOMETRIC_PRESENTATION_REPRESENTATION('',(#13),#481);
#11=SHAPE_REPRESENTATION_RELATIONSHIP('SRR','None',#490,#12);
#12=ADVANCED_BREP_SHAPE_REPRESENTATION('',(#14),#480);
#13=STYLED_ITEM('',(#499),#14);
#14=MANIFOLD_SOLID_BREP('Solido1',#200);
#15=B_SPLINE_CURVE_WITH_KNOTS('',3,(#333,#334,#335,#336,#337,#338,#339,
#340,#341,#342,#343,#344,#345,#346,#347,#348,#349,#350,#351,#352,#353,#354,
#355,#356,#357,#358,#359,#360,#361,#362,#363,#364,#365,#366,#367,#368,#369,
#370,#371,#372,#373,#374,#375,#376,#377,#378,#379,#380,#381,#382,#383,#384,
#385,#386,#387,#388,#389,#390,#391,#392,#393,#394,#395,#396,#397,#398),
 .UNSPECIFIED.,.T.,.F.,(4,2,2,2,2,2,2,2,2,2,2,2,2,2,2,2,2,2,2,2,2,2,2,2,
2,2,2,2,2,2,2,2,4),(0.,0.747534565776966,1.49506913155393,2.2426036973309,
2.99013826310786,3.70868019692344,4.42722213073901,5.14576406455459,5.86430599837016,
6.58284793218574,7.30138986600131,8.01993179981688,8.73847373363246,9.48600829940942,
10.2335428651864,10.9810774309634,11.7286119967403,12.4761465625173,13.2236811282943,
13.9712156940712,14.7187502598482,15.4372921936638,16.1558341274793,16.8743760612949,
17.5929179951105,18.3114599289261,19.0300018627416,19.7485437965572,20.4670857303728,
21.2146202961497,21.9621548619267,22.7096894277037,23.4572239934806),
 .UNSPECIFIED.);
#16=B_SPLINE_CURVE_WITH_KNOTS('',3,(#409,#410,#411,#412,#413,#414,#415,
#416,#417,#418,#419,#420,#421,#422,#423,#424,#425,#426,#427,#428,#429,#430,
#431,#432,#433,#434,#435,#436,#437,#438,#439,#440,#441,#442,#443,#444,#445,
#446,#447,#448,#449,#450,#451,#452,#453,#454,#455,#456,#457,#458,#459,#460,
#461,#462,#463,#464,#465,#466,#467,#468,#469,#470,#471,#472,#473,#474),
 .UNSPECIFIED.,.T.,.F.,(4,2,2,2,2,2,2,2,2,2,2,2,2,2,2,2,2,2,2,2,2,2,2,2,
2,2,2,2,2,2,2,2,4),(0.,0.929812321620921,1.85962464324184,2.78943696486276,
3.71924928648368,4.60928073756671,5.49931218864974,6.38934363973277,7.2793750908158,
8.16940654189883,9.05943799298186,9.94946944406489,10.8395008951479,11.7693132167688,
12.6991255383898,13.6289378600107,14.5587501816316,15.4885625032525,16.4183748248734,
17.3481871464944,18.2779994681153,19.1680309191983,20.0580623702813,20.9480938213644,
21.8381252724474,22.7281567235304,23.6181881746135,24.5082196256965,25.3982510767795,
26.3280633984004,27.2578757200214,28.1876880416423,29.1175003632632),
 .UNSPECIFIED.);
#17=PLANE('',#207);
#18=PLANE('',#214);
#19=PLANE('',#221);
#20=PLANE('',#228);
#21=PLANE('',#231);
#22=PLANE('',#232);
#23=CYLINDRICAL_SURFACE('',#205,45.);
#24=CYLINDRICAL_SURFACE('',#212,45.);
#25=CYLINDRICAL_SURFACE('',#219,37.5);
#26=CYLINDRICAL_SURFACE('',#223,36.);
#27=CYLINDRICAL_SURFACE('',#225,43.5);
#28=CYLINDRICAL_SURFACE('',#229,44.5);
#29=CYLINDRICAL_SURFACE('',#230,53.);
#30=FACE_BOUND('',#65,.T.);
#31=FACE_BOUND('',#67,.T.);
#32=FACE_BOUND('',#69,.T.);
#33=FACE_BOUND('',#71,.T.);
#34=FACE_BOUND('',#73,.T.);
#35=FACE_BOUND('',#75,.T.);
#36=FACE_BOUND('',#77,.T.);
#37=FACE_BOUND('',#79,.T.);
#38=FACE_BOUND('',#81,.T.);
#39=FACE_BOUND('',#83,.T.);
#40=FACE_BOUND('',#85,.T.);
#41=FACE_BOUND('',#86,.T.);
#42=FACE_BOUND('',#88,.T.);
#43=FACE_BOUND('',#90,.T.);
#44=FACE_BOUND('',#92,.T.);
#45=FACE_BOUND('',#93,.T.);
#46=FACE_BOUND('',#95,.T.);
#47=FACE_BOUND('',#97,.T.);
#48=FACE_OUTER_BOUND('',#64,.T.);
#49=FACE_OUTER_BOUND('',#66,.T.);
#50=FACE_OUTER_BOUND('',#68,.T.);
#51=FACE_OUTER_BOUND('',#70,.T.);
#52=FACE_OUTER_BOUND('',#72,.T.);
#53=FACE_OUTER_BOUND('',#74,.T.);
#54=FACE_OUTER_BOUND('',#76,.T.);
#55=FACE_OUTER_BOUND('',#78,.T.);
#56=FACE_OUTER_BOUND('',#80,.T.);
#57=FACE_OUTER_BOUND('',#82,.T.);
#58=FACE_OUTER_BOUND('',#84,.T.);
#59=FACE_OUTER_BOUND('',#87,.T.);
#60=FACE_OUTER_BOUND('',#89,.T.);
#61=FACE_OUTER_BOUND('',#91,.T.);
#62=FACE_OUTER_BOUND('',#94,.T.);
#63=FACE_OUTER_BOUND('',#96,.T.);
#64=EDGE_LOOP('',(#147));
#65=EDGE_LOOP('',(#148));
#66=EDGE_LOOP('',(#149));
#67=EDGE_LOOP('',(#150));
#68=EDGE_LOOP('',(#151));
#69=EDGE_LOOP('',(#152));
#70=EDGE_LOOP('',(#153));
#71=EDGE_LOOP('',(#154));
#72=EDGE_LOOP('',(#155));
#73=EDGE_LOOP('',(#156));
#74=EDGE_LOOP('',(#157));
#75=EDGE_LOOP('',(#158));
#76=EDGE_LOOP('',(#159));
#77=EDGE_LOOP('',(#160));
#78=EDGE_LOOP('',(#161));
#79=EDGE_LOOP('',(#162));
#80=EDGE_LOOP('',(#163));
#81=EDGE_LOOP('',(#164));
#82=EDGE_LOOP('',(#165));
#83=EDGE_LOOP('',(#166));
#84=EDGE_LOOP('',(#167));
#85=EDGE_LOOP('',(#168));
#86=EDGE_LOOP('',(#169));
#87=EDGE_LOOP('',(#170));
#88=EDGE_LOOP('',(#171));
#89=EDGE_LOOP('',(#172));
#90=EDGE_LOOP('',(#173));
#91=EDGE_LOOP('',(#174));
#92=EDGE_LOOP('',(#175));
#93=EDGE_LOOP('',(#176));
#94=EDGE_LOOP('',(#177));
#95=EDGE_LOOP('',(#178));
#96=EDGE_LOOP('',(#179));
#97=EDGE_LOOP('',(#180));
#98=CIRCLE('',#203,45.);
#99=CIRCLE('',#204,45.5);
#100=CIRCLE('',#206,45.);
#101=CIRCLE('',#208,53.);
#102=CIRCLE('',#210,45.);
#103=CIRCLE('',#211,45.5);
#104=CIRCLE('',#213,45.);
#105=CIRCLE('',#215,53.);
#106=CIRCLE('',#217,37.5);
#107=CIRCLE('',#218,38.);
#108=CIRCLE('',#220,37.5);
#109=CIRCLE('',#222,44.5);
#110=CIRCLE('',#224,36.);
#111=CIRCLE('',#226,43.5);
#112=CIRCLE('',#227,43.5);
#113=VERTEX_POINT('',#299);
#114=VERTEX_POINT('',#301);
#115=VERTEX_POINT('',#304);
#116=VERTEX_POINT('',#307);
#117=VERTEX_POINT('',#310);
#118=VERTEX_POINT('',#312);
#119=VERTEX_POINT('',#315);
#120=VERTEX_POINT('',#318);
#121=VERTEX_POINT('',#321);
#122=VERTEX_POINT('',#323);
#123=VERTEX_POINT('',#326);
#124=VERTEX_POINT('',#329);
#125=VERTEX_POINT('',#332);
#126=VERTEX_POINT('',#399);
#127=VERTEX_POINT('',#402);
#128=VERTEX_POINT('',#404);
#129=VERTEX_POINT('',#408);
#130=EDGE_CURVE('',#113,#113,#98,.T.);
#131=EDGE_CURVE('',#114,#114,#99,.T.);
#132=EDGE_CURVE('',#115,#115,#100,.T.);
#133=EDGE_CURVE('',#116,#116,#101,.T.);
#134=EDGE_CURVE('',#117,#117,#102,.T.);
#135=EDGE_CURVE('',#118,#118,#103,.T.);
#136=EDGE_CURVE('',#119,#119,#104,.T.);
#137=EDGE_CURVE('',#120,#120,#105,.T.);
#138=EDGE_CURVE('',#121,#121,#106,.T.);
#139=EDGE_CURVE('',#122,#122,#107,.T.);
#140=EDGE_CURVE('',#123,#123,#108,.T.);
#141=EDGE_CURVE('',#124,#124,#109,.T.);
#142=EDGE_CURVE('',#125,#125,#15,.T.);
#143=EDGE_CURVE('',#126,#126,#110,.T.);
#144=EDGE_CURVE('',#127,#127,#111,.T.);
#145=EDGE_CURVE('',#128,#128,#112,.T.);
#146=EDGE_CURVE('',#129,#129,#16,.T.);
#147=ORIENTED_EDGE('',*,*,#130,.T.);
#148=ORIENTED_EDGE('',*,*,#131,.T.);
#149=ORIENTED_EDGE('',*,*,#132,.T.);
#150=ORIENTED_EDGE('',*,*,#130,.F.);
#151=ORIENTED_EDGE('',*,*,#133,.T.);
#152=ORIENTED_EDGE('',*,*,#131,.F.);
#153=ORIENTED_EDGE('',*,*,#134,.T.);
#154=ORIENTED_EDGE('',*,*,#135,.T.);
#155=ORIENTED_EDGE('',*,*,#136,.F.);
#156=ORIENTED_EDGE('',*,*,#134,.F.);
#157=ORIENTED_EDGE('',*,*,#137,.T.);
#158=ORIENTED_EDGE('',*,*,#135,.F.);
#159=ORIENTED_EDGE('',*,*,#138,.T.);
#160=ORIENTED_EDGE('',*,*,#139,.T.);
#161=ORIENTED_EDGE('',*,*,#140,.T.);
#162=ORIENTED_EDGE('',*,*,#138,.F.);
#163=ORIENTED_EDGE('',*,*,#141,.F.);
#164=ORIENTED_EDGE('',*,*,#139,.F.);
#165=ORIENTED_EDGE('',*,*,#142,.F.);
#166=ORIENTED_EDGE('',*,*,#143,.F.);
#167=ORIENTED_EDGE('',*,*,#144,.F.);
#168=ORIENTED_EDGE('',*,*,#142,.T.);
#169=ORIENTED_EDGE('',*,*,#145,.F.);
#170=ORIENTED_EDGE('',*,*,#140,.F.);
#171=ORIENTED_EDGE('',*,*,#143,.T.);
#172=ORIENTED_EDGE('',*,*,#141,.T.);
#173=ORIENTED_EDGE('',*,*,#146,.F.);
#174=ORIENTED_EDGE('',*,*,#133,.F.);
#175=ORIENTED_EDGE('',*,*,#137,.F.);
#176=ORIENTED_EDGE('',*,*,#146,.T.);
#177=ORIENTED_EDGE('',*,*,#136,.T.);
#178=ORIENTED_EDGE('',*,*,#145,.T.);
#179=ORIENTED_EDGE('',*,*,#132,.F.);
#180=ORIENTED_EDGE('',*,*,#144,.T.);
#181=TOROIDAL_SURFACE('',#202,45.5,0.5);
#182=TOROIDAL_SURFACE('',#209,45.5,0.5);
#183=TOROIDAL_SURFACE('',#216,38.,0.5);
#184=ADVANCED_FACE('',(#48,#30),#181,.T.);
#185=ADVANCED_FACE('',(#49,#31),#23,.F.);
#186=ADVANCED_FACE('',(#50,#32),#17,.T.);
#187=ADVANCED_FACE('',(#51,#33),#182,.T.);
#188=ADVANCED_FACE('',(#52,#34),#24,.F.);
#189=ADVANCED_FACE('',(#53,#35),#18,.F.);
#190=ADVANCED_FACE('',(#54,#36),#183,.T.);
#191=ADVANCED_FACE('',(#55,#37),#25,.F.);
#192=ADVANCED_FACE('',(#56,#38),#19,.T.);
#193=ADVANCED_FACE('',(#57,#39),#26,.F.);
#194=ADVANCED_FACE('',(#58,#40,#41),#27,.F.);
#195=ADVANCED_FACE('',(#59,#42),#20,.T.);
#196=ADVANCED_FACE('',(#60,#43),#28,.T.);
#197=ADVANCED_FACE('',(#61,#44,#45),#29,.T.);
#198=ADVANCED_FACE('',(#62,#46),#21,.F.);
#199=ADVANCED_FACE('',(#63,#47),#22,.T.);
#200=CLOSED_SHELL('',(#184,#185,#186,#187,#188,#189,#190,#191,#192,#193,
#194,#195,#196,#197,#198,#199));
#201=AXIS2_PLACEMENT_3D('placement',#297,#233,#234);
#202=AXIS2_PLACEMENT_3D('',#298,#235,#236);
#203=AXIS2_PLACEMENT_3D('',#300,#237,#238);
#204=AXIS2_PLACEMENT_3D('',#302,#239,#240);
#205=AXIS2_PLACEMENT_3D('',#303,#241,#242);
#206=AXIS2_PLACEMENT_3D('',#305,#243,#244);
#207=AXIS2_PLACEMENT_3D('',#306,#245,#246);
#208=AXIS2_PLACEMENT_3D('',#308,#247,#248);
#209=AXIS2_PLACEMENT_3D('',#309,#249,#250);
#210=AXIS2_PLACEMENT_3D('',#311,#251,#252);
#211=AXIS2_PLACEMENT_3D('',#313,#253,#254);
#212=AXIS2_PLACEMENT_3D('',#314,#255,#256);
#213=AXIS2_PLACEMENT_3D('',#316,#257,#258);
#214=AXIS2_PLACEMENT_3D('',#317,#259,#260);
#215=AXIS2_PLACEMENT_3D('',#319,#261,#262);
#216=AXIS2_PLACEMENT_3D('',#320,#263,#264);
#217=AXIS2_PLACEMENT_3D('',#322,#265,#266);
#218=AXIS2_PLACEMENT_3D('',#324,#267,#268);
#219=AXIS2_PLACEMENT_3D('',#325,#269,#270);
#220=AXIS2_PLACEMENT_3D('',#327,#271,#272);
#221=AXIS2_PLACEMENT_3D('',#328,#273,#274);
#222=AXIS2_PLACEMENT_3D('',#330,#275,#276);
#223=AXIS2_PLACEMENT_3D('',#331,#277,#278);
#224=AXIS2_PLACEMENT_3D('',#400,#279,#280);
#225=AXIS2_PLACEMENT_3D('',#401,#281,#282);
#226=AXIS2_PLACEMENT_3D('',#403,#283,#284);
#227=AXIS2_PLACEMENT_3D('',#405,#285,#286);
#228=AXIS2_PLACEMENT_3D('',#406,#287,#288);
#229=AXIS2_PLACEMENT_3D('',#407,#289,#290);
#230=AXIS2_PLACEMENT_3D('',#475,#291,#292);
#231=AXIS2_PLACEMENT_3D('',#476,#293,#294);
#232=AXIS2_PLACEMENT_3D('',#477,#295,#296);
#233=DIRECTION('axis',(0.,0.,1.));
#234=DIRECTION('refdir',(1.,0.,0.));
#235=DIRECTION('center_axis',(0.,0.,-1.));
#236=DIRECTION('ref_axis',(-1.,0.,0.));
#237=DIRECTION('center_axis',(0.,0.,-1.));
#238=DIRECTION('ref_axis',(-1.,0.,0.));
#239=DIRECTION('center_axis',(0.,0.,1.));
#240=DIRECTION('ref_axis',(-1.,0.,0.));
#241=DIRECTION('center_axis',(0.,0.,-1.));
#242=DIRECTION('ref_axis',(-1.,0.,0.));
#243=DIRECTION('center_axis',(0.,0.,-1.));
#244=DIRECTION('ref_axis',(-1.,0.,0.));
#245=DIRECTION('center_axis',(0.,0.,1.));
#246=DIRECTION('ref_axis',(1.,0.,0.));
#247=DIRECTION('center_axis',(0.,0.,1.));
#248=DIRECTION('ref_axis',(-1.,0.,0.));
#249=DIRECTION('center_axis',(0.,0.,1.));
#250=DIRECTION('ref_axis',(1.,0.,0.));
#251=DIRECTION('center_axis',(0.,0.,1.));
#252=DIRECTION('ref_axis',(-1.,0.,0.));
#253=DIRECTION('center_axis',(0.,0.,-1.));
#254=DIRECTION('ref_axis',(-1.,0.,0.));
#255=DIRECTION('center_axis',(0.,0.,-1.));
#256=DIRECTION('ref_axis',(-1.,0.,0.));
#257=DIRECTION('center_axis',(0.,0.,-1.));
#258=DIRECTION('ref_axis',(-1.,0.,0.));
#259=DIRECTION('center_axis',(0.,0.,1.));
#260=DIRECTION('ref_axis',(1.,0.,0.));
#261=DIRECTION('center_axis',(0.,0.,-1.));
#262=DIRECTION('ref_axis',(-1.,0.,0.));
#263=DIRECTION('center_axis',(0.,-1.,0.));
#264=DIRECTION('ref_axis',(0.,0.,-1.));
#265=DIRECTION('center_axis',(0.,-1.,0.));
#266=DIRECTION('ref_axis',(-1.,0.,0.));
#267=DIRECTION('center_axis',(0.,1.,0.));
#268=DIRECTION('ref_axis',(-1.,0.,0.));
#269=DIRECTION('center_axis',(0.,-1.,0.));
#270=DIRECTION('ref_axis',(-1.,0.,0.));
#271=DIRECTION('center_axis',(0.,-1.,0.));
#272=DIRECTION('ref_axis',(-1.,0.,0.));
#273=DIRECTION('center_axis',(0.,1.,0.));
#274=DIRECTION('ref_axis',(0.,0.,1.));
#275=DIRECTION('center_axis',(0.,-1.,0.));
#276=DIRECTION('ref_axis',(1.,0.,0.));
#277=DIRECTION('center_axis',(0.,-1.,0.));
#278=DIRECTION('ref_axis',(-1.,0.,0.));
#279=DIRECTION('center_axis',(0.,-1.,0.));
#280=DIRECTION('ref_axis',(-1.,0.,0.));
#281=DIRECTION('center_axis',(0.,0.,1.));
#282=DIRECTION('ref_axis',(1.,0.,0.));
#283=DIRECTION('center_axis',(0.,0.,-1.));
#284=DIRECTION('ref_axis',(1.,0.,0.));
#285=DIRECTION('center_axis',(0.,0.,1.));
#286=DIRECTION('ref_axis',(1.,0.,0.));
#287=DIRECTION('center_axis',(0.,1.,0.));
#288=DIRECTION('ref_axis',(0.,0.,1.));
#289=DIRECTION('center_axis',(0.,-1.,0.));
#290=DIRECTION('ref_axis',(1.,0.,0.));
#291=DIRECTION('center_axis',(0.,0.,1.));
#292=DIRECTION('ref_axis',(-1.,0.,0.));
#293=DIRECTION('center_axis',(0.,0.,1.));
#294=DIRECTION('ref_axis',(1.,0.,0.));
#295=DIRECTION('center_axis',(0.,0.,1.));
#296=DIRECTION('ref_axis',(1.,0.,0.));
#297=CARTESIAN_POINT('',(0.,0.,0.));
#298=CARTESIAN_POINT('Origin',(0.,0.,97.5));
#299=CARTESIAN_POINT('',(45.,-5.51091059616309E-15,97.5));
#300=CARTESIAN_POINT('Origin',(0.,0.,97.5));
#301=CARTESIAN_POINT('',(45.5,5.57214293612046E-15,98.));
#302=CARTESIAN_POINT('Origin',(0.,0.,98.));
#303=CARTESIAN_POINT('Origin',(0.,0.,98.));
#304=CARTESIAN_POINT('',(45.,5.51091059616309E-15,47.));
#305=CARTESIAN_POINT('Origin',(0.,0.,47.));
#306=CARTESIAN_POINT('Origin',(-5.40885669623414E-16,0.,98.));
#307=CARTESIAN_POINT('',(53.,6.49062803548097E-15,98.));
#308=CARTESIAN_POINT('Origin',(0.,0.,98.));
#309=CARTESIAN_POINT('Origin',(0.,0.,-97.5));
#310=CARTESIAN_POINT('',(45.,5.51091059616309E-15,-97.5));
#311=CARTESIAN_POINT('Origin',(0.,0.,-97.5));
#312=CARTESIAN_POINT('',(45.5,-5.57214293612046E-15,-98.));
#313=CARTESIAN_POINT('Origin',(0.,0.,-98.));
#314=CARTESIAN_POINT('Origin',(0.,0.,-98.));
#315=CARTESIAN_POINT('',(45.,5.51091059616309E-15,-47.));
#316=CARTESIAN_POINT('Origin',(0.,0.,-47.));
#317=CARTESIAN_POINT('Origin',(-5.40885669623414E-16,0.,-98.));
#318=CARTESIAN_POINT('',(53.,6.49062803548097E-15,-98.));
#319=CARTESIAN_POINT('Origin',(0.,0.,-98.));
#320=CARTESIAN_POINT('Origin',(0.,90.5,0.));
#321=CARTESIAN_POINT('',(37.5,90.5,4.59242549680258E-15));
#322=CARTESIAN_POINT('Origin',(0.,90.5,0.));
#323=CARTESIAN_POINT('',(38.,91.,-4.65365783675994E-15));
#324=CARTESIAN_POINT('Origin',(0.,91.,0.));
#325=CARTESIAN_POINT('Origin',(0.,91.,0.));
#326=CARTESIAN_POINT('',(37.5,47.,-4.59242549680258E-15));
#327=CARTESIAN_POINT('Origin',(0.,47.,0.));
#328=CARTESIAN_POINT('Origin',(4.44595297693156E-15,91.,0.));
#329=CARTESIAN_POINT('',(-44.5,91.,5.44967825620572E-15));
#330=CARTESIAN_POINT('Origin',(0.,91.,0.));
#331=CARTESIAN_POINT('Origin',(0.,47.0000000000001,0.));
#332=CARTESIAN_POINT('',(36.,24.4182308941496,7.21644966006352E-15));
#333=CARTESIAN_POINT('Ctrl Pts',(36.,24.4182308941496,7.21644966006352E-15));
#334=CARTESIAN_POINT('Ctrl Pts',(36.,24.4182308941496,-2.49178188592321));
#335=CARTESIAN_POINT('Ctrl Pts',(35.7410374326057,24.809771815917,-4.93890255801556));
#336=CARTESIAN_POINT('Ctrl Pts',(34.7630906580382,26.1624551530716,-9.66136874693246));
#337=CARTESIAN_POINT('Ctrl Pts',(34.0440285023842,27.115951110002,-11.9388849962613));
#338=CARTESIAN_POINT('Ctrl Pts',(32.2010702620949,29.280741077436,-16.2672648594781));
#339=CARTESIAN_POINT('Ctrl Pts',(31.0754183488124,30.4912865629899,-18.3199590841129));
#340=CARTESIAN_POINT('Ctrl Pts',(28.4880635386106,32.9215798400251,-22.1299064959682));
#341=CARTESIAN_POINT('Ctrl Pts',(27.0252714238767,34.1413324195055,-23.8864168215547));
#342=CARTESIAN_POINT('Ctrl Pts',(23.9472860177309,36.3625967085915,-26.9644022277005));
#343=CARTESIAN_POINT('Ctrl Pts',(22.2284408461468,37.4534472512195,-28.4111149149542));
#344=CARTESIAN_POINT('Ctrl Pts',(18.4302867255687,39.4612319215433,-31.0099913710199));
#345=CARTESIAN_POINT('Ctrl Pts',(16.3506383160287,40.3775010762142,-32.1621727088631));
#346=CARTESIAN_POINT('Ctrl Pts',(11.9410402377689,41.8938847429679,-34.0464439857089));
#347=CARTESIAN_POINT('Ctrl Pts',(9.60586517636343,42.4951024935835,-34.7801819801795));
#348=CARTESIAN_POINT('Ctrl Pts',(4.83299456029339,43.2983665440137,-35.7571792513349));
#349=CARTESIAN_POINT('Ctrl Pts',(2.39513977938525,43.5,-36.));
#350=CARTESIAN_POINT('Ctrl Pts',(-2.39513977938524,43.5,-36.));
#351=CARTESIAN_POINT('Ctrl Pts',(-4.83299456029338,43.2983665440137,-35.7571792513349));
#352=CARTESIAN_POINT('Ctrl Pts',(-9.60586517636342,42.4951024935835,-34.7801819801795));
#353=CARTESIAN_POINT('Ctrl Pts',(-11.9410402377689,41.8938847429679,-34.0464439857089));
#354=CARTESIAN_POINT('Ctrl Pts',(-16.3506383160287,40.3775010762142,-32.1621727088631));
#355=CARTESIAN_POINT('Ctrl Pts',(-18.4302867255687,39.4612319215433,-31.0099913710199));
#356=CARTESIAN_POINT('Ctrl Pts',(-22.2284408461467,37.4534472512195,-28.4111149149542));
#357=CARTESIAN_POINT('Ctrl Pts',(-23.9472860177309,36.3625967085915,-26.9644022277005));
#358=CARTESIAN_POINT('Ctrl Pts',(-27.0252714238767,34.1413324195056,-23.8864168215548));
#359=CARTESIAN_POINT('Ctrl Pts',(-28.4880635386106,32.9215798400251,-22.1299064959682));
#360=CARTESIAN_POINT('Ctrl Pts',(-31.0754183488124,30.49128656299,-18.3199590841129));
#361=CARTESIAN_POINT('Ctrl Pts',(-32.2010702620949,29.2807410774361,-16.2672648594781));
#362=CARTESIAN_POINT('Ctrl Pts',(-34.0440285023842,27.115951110002,-11.9388849962613));
#363=CARTESIAN_POINT('Ctrl Pts',(-34.7630906580382,26.1624551530716,-9.66136874693248));
#364=CARTESIAN_POINT('Ctrl Pts',(-35.7410374326056,24.809771815917,-4.93890255801557));
#365=CARTESIAN_POINT('Ctrl Pts',(-36.,24.4182308941496,-2.49178188592322));
#366=CARTESIAN_POINT('Ctrl Pts',(-36.,24.4182308941496,2.49178188592322));
#367=CARTESIAN_POINT('Ctrl Pts',(-35.7410374326056,24.809771815917,4.93890255801557));
#368=CARTESIAN_POINT('Ctrl Pts',(-34.7630906580382,26.1624551530716,9.66136874693247));
#369=CARTESIAN_POINT('Ctrl Pts',(-34.0440285023842,27.115951110002,11.9388849962613));
#370=CARTESIAN_POINT('Ctrl Pts',(-32.2010702620949,29.2807410774361,16.2672648594781));
#371=CARTESIAN_POINT('Ctrl Pts',(-31.0754183488124,30.49128656299,18.3199590841129));
#372=CARTESIAN_POINT('Ctrl Pts',(-28.4880635386106,32.9215798400251,22.1299064959682));
#373=CARTESIAN_POINT('Ctrl Pts',(-27.0252714238767,34.1413324195055,23.8864168215547));
#374=CARTESIAN_POINT('Ctrl Pts',(-23.9472860177309,36.3625967085915,26.9644022277005));
#375=CARTESIAN_POINT('Ctrl Pts',(-22.2284408461467,37.4534472512195,28.4111149149542));
#376=CARTESIAN_POINT('Ctrl Pts',(-18.4302867255687,39.4612319215433,31.0099913710199));
#377=CARTESIAN_POINT('Ctrl Pts',(-16.3506383160287,40.3775010762142,32.1621727088631));
#378=CARTESIAN_POINT('Ctrl Pts',(-11.9410402377689,41.8938847429679,34.0464439857089));
#379=CARTESIAN_POINT('Ctrl Pts',(-9.60586517636344,42.4951024935835,34.7801819801795));
#380=CARTESIAN_POINT('Ctrl Pts',(-4.8329945602934,43.2983665440137,35.7571792513349));
#381=CARTESIAN_POINT('Ctrl Pts',(-2.39513977938526,43.5,36.));
#382=CARTESIAN_POINT('Ctrl Pts',(2.39513977938524,43.5,36.));
#383=CARTESIAN_POINT('Ctrl Pts',(4.83299456029338,43.2983665440137,35.7571792513349));
#384=CARTESIAN_POINT('Ctrl Pts',(9.60586517636342,42.4951024935835,34.7801819801795));
#385=CARTESIAN_POINT('Ctrl Pts',(11.9410402377689,41.8938847429679,34.0464439857089));
#386=CARTESIAN_POINT('Ctrl Pts',(16.3506383160287,40.3775010762142,32.1621727088631));
#387=CARTESIAN_POINT('Ctrl Pts',(18.4302867255686,39.4612319215433,31.0099913710199));
#388=CARTESIAN_POINT('Ctrl Pts',(22.2284408461467,37.4534472512195,28.4111149149542));
#389=CARTESIAN_POINT('Ctrl Pts',(23.9472860177309,36.3625967085915,26.9644022277006));
#390=CARTESIAN_POINT('Ctrl Pts',(27.0252714238766,34.1413324195056,23.8864168215548));
#391=CARTESIAN_POINT('Ctrl Pts',(28.4880635386106,32.9215798400251,22.1299064959682));
#392=CARTESIAN_POINT('Ctrl Pts',(31.0754183488124,30.49128656299,18.3199590841129));
#393=CARTESIAN_POINT('Ctrl Pts',(32.2010702620949,29.2807410774361,16.2672648594782));
#394=CARTESIAN_POINT('Ctrl Pts',(34.0440285023842,27.115951110002,11.9388849962614));
#395=CARTESIAN_POINT('Ctrl Pts',(34.7630906580382,26.1624551530717,9.66136874693252));
#396=CARTESIAN_POINT('Ctrl Pts',(35.7410374326056,24.809771815917,4.9389025580156));
#397=CARTESIAN_POINT('Ctrl Pts',(36.,24.4182308941496,2.49178188592324));
#398=CARTESIAN_POINT('Ctrl Pts',(36.,24.4182308941496,1.0547118733939E-14));
#399=CARTESIAN_POINT('',(36.,47.0000000000001,-4.40872847693047E-15));
#400=CARTESIAN_POINT('Origin',(0.,47.0000000000001,0.));
#401=CARTESIAN_POINT('Origin',(0.,0.,-47.));
#402=CARTESIAN_POINT('',(-43.5,5.32721357629099E-15,47.));
#403=CARTESIAN_POINT('Origin',(0.,0.,47.));
#404=CARTESIAN_POINT('',(-43.5,5.32721357629099E-15,-47.));
#405=CARTESIAN_POINT('Origin',(0.,0.,-47.));
#406=CARTESIAN_POINT('Origin',(-3.54066983922288E-15,47.0000000000001,7.89491928622334E-16));
#407=CARTESIAN_POINT('Origin',(0.,91.,0.));
#408=CARTESIAN_POINT('',(44.5,28.7880183409696,0.));
#409=CARTESIAN_POINT('Ctrl Pts',(44.5,28.7880183409696,0.));
#410=CARTESIAN_POINT('Ctrl Pts',(44.5,28.7880183409696,3.09937440540307));
#411=CARTESIAN_POINT('Ctrl Pts',(44.1766837143423,29.3010443098034,6.12727274976759));
#412=CARTESIAN_POINT('Ctrl Pts',(42.9659331512746,31.04930221623,11.9604116186724));
#413=CARTESIAN_POINT('Ctrl Pts',(42.0780722780478,32.2745080961307,14.7685638410887));
#414=CARTESIAN_POINT('Ctrl Pts',(39.8031544787389,35.0416467614079,20.1092902328603));
#415=CARTESIAN_POINT('Ctrl Pts',(38.4139735392968,36.5828115811467,22.6431167503382));
#416=CARTESIAN_POINT('Ctrl Pts',(35.2177312699089,39.6692182075087,27.3506033241871));
#417=CARTESIAN_POINT('Ctrl Pts',(33.4093048178038,41.2146699382803,29.5231987077989));
#418=CARTESIAN_POINT('Ctrl Pts',(29.6063298303189,44.0205367702175,33.3261736952838));
#419=CARTESIAN_POINT('Ctrl Pts',(27.4859257389301,45.3940076169213,35.111920614422));
#420=CARTESIAN_POINT('Ctrl Pts',(22.7971517711491,47.9205792176962,38.3224862812245));
#421=CARTESIAN_POINT('Ctrl Pts',(20.2283576691786,49.0728888468615,39.7473079985861));
#422=CARTESIAN_POINT('Ctrl Pts',(14.7782708127127,50.9797770962859,42.0789467264782));
#423=CARTESIAN_POINT('Ctrl Pts',(11.8904716812909,51.7357813261827,42.9878164932442));
#424=CARTESIAN_POINT('Ctrl Pts',(5.98482174495415,52.7461495754122,44.1986152775632));
#425=CARTESIAN_POINT('Ctrl Pts',(2.9667715036101,53.,44.5));
#426=CARTESIAN_POINT('Ctrl Pts',(-2.9667715036101,53.,44.5));
#427=CARTESIAN_POINT('Ctrl Pts',(-5.98482174495415,52.7461495754122,44.1986152775632));
#428=CARTESIAN_POINT('Ctrl Pts',(-11.8904716812909,51.7357813261827,42.9878164932442));
#429=CARTESIAN_POINT('Ctrl Pts',(-14.7782708127127,50.9797770962859,42.0789467264782));
#430=CARTESIAN_POINT('Ctrl Pts',(-20.2283576691786,49.0728888468616,39.7473079985861));
#431=CARTESIAN_POINT('Ctrl Pts',(-22.7971517711491,47.9205792176962,38.3224862812245));
#432=CARTESIAN_POINT('Ctrl Pts',(-27.4859257389301,45.3940076169213,35.111920614422));
#433=CARTESIAN_POINT('Ctrl Pts',(-29.6063298303189,44.0205367702175,33.3261736952838));
#434=CARTESIAN_POINT('Ctrl Pts',(-33.4093048178038,41.2146699382803,29.5231987077989));
#435=CARTESIAN_POINT('Ctrl Pts',(-35.2177312699089,39.6692182075087,27.3506033241871));
#436=CARTESIAN_POINT('Ctrl Pts',(-38.4139735392968,36.5828115811467,22.6431167503382));
#437=CARTESIAN_POINT('Ctrl Pts',(-39.8031544787389,35.0416467614079,20.1092902328603));
#438=CARTESIAN_POINT('Ctrl Pts',(-42.0780722780478,32.2745080961307,14.7685638410887));
#439=CARTESIAN_POINT('Ctrl Pts',(-42.9659331512746,31.04930221623,11.9604116186724));
#440=CARTESIAN_POINT('Ctrl Pts',(-44.1766837143423,29.3010443098034,6.12727274976759));
#441=CARTESIAN_POINT('Ctrl Pts',(-44.5,28.7880183409696,3.09937440540307));
#442=CARTESIAN_POINT('Ctrl Pts',(-44.5,28.7880183409696,-3.09937440540307));
#443=CARTESIAN_POINT('Ctrl Pts',(-44.1766837143423,29.3010443098034,-6.12727274976759));
#444=CARTESIAN_POINT('Ctrl Pts',(-42.9659331512746,31.04930221623,-11.9604116186724));
#445=CARTESIAN_POINT('Ctrl Pts',(-42.0780722780478,32.2745080961307,-14.7685638410887));
#446=CARTESIAN_POINT('Ctrl Pts',(-39.8031544787389,35.0416467614079,-20.1092902328603));
#447=CARTESIAN_POINT('Ctrl Pts',(-38.4139735392968,36.5828115811467,-22.6431167503382));
#448=CARTESIAN_POINT('Ctrl Pts',(-35.2177312699089,39.6692182075087,-27.3506033241871));
#449=CARTESIAN_POINT('Ctrl Pts',(-33.4093048178038,41.2146699382803,-29.5231987077989));
#450=CARTESIAN_POINT('Ctrl Pts',(-29.6063298303189,44.0205367702175,-33.3261736952838));
#451=CARTESIAN_POINT('Ctrl Pts',(-27.4859257389301,45.3940076169213,-35.111920614422));
#452=CARTESIAN_POINT('Ctrl Pts',(-22.7971517711491,47.9205792176962,-38.3224862812245));
#453=CARTESIAN_POINT('Ctrl Pts',(-20.2283576691786,49.0728888468615,-39.7473079985861));
#454=CARTESIAN_POINT('Ctrl Pts',(-14.7782708127127,50.9797770962859,-42.0789467264782));
#455=CARTESIAN_POINT('Ctrl Pts',(-11.8904716812909,51.7357813261827,-42.9878164932442));
#456=CARTESIAN_POINT('Ctrl Pts',(-5.98482174495416,52.7461495754122,-44.1986152775632));
#457=CARTESIAN_POINT('Ctrl Pts',(-2.96677150361011,53.,-44.5));
#458=CARTESIAN_POINT('Ctrl Pts',(2.96677150361009,53.,-44.5));
#459=CARTESIAN_POINT('Ctrl Pts',(5.98482174495414,52.7461495754122,-44.1986152775632));
#460=CARTESIAN_POINT('Ctrl Pts',(11.8904716812909,51.7357813261827,-42.9878164932442));
#461=CARTESIAN_POINT('Ctrl Pts',(14.7782708127127,50.9797770962859,-42.0789467264782));
#462=CARTESIAN_POINT('Ctrl Pts',(20.2283576691786,49.0728888468616,-39.7473079985862));
#463=CARTESIAN_POINT('Ctrl Pts',(22.7971517711491,47.9205792176962,-38.3224862812245));
#464=CARTESIAN_POINT('Ctrl Pts',(27.4859257389301,45.3940076169213,-35.111920614422));
#465=CARTESIAN_POINT('Ctrl Pts',(29.6063298303189,44.0205367702175,-33.3261736952838));
#466=CARTESIAN_POINT('Ctrl Pts',(33.4093048178038,41.2146699382803,-29.5231987077989));
#467=CARTESIAN_POINT('Ctrl Pts',(35.2177312699089,39.6692182075087,-27.3506033241871));
#468=CARTESIAN_POINT('Ctrl Pts',(38.4139735392968,36.5828115811467,-22.6431167503382));
#469=CARTESIAN_POINT('Ctrl Pts',(39.8031544787389,35.0416467614079,-20.1092902328603));
#470=CARTESIAN_POINT('Ctrl Pts',(42.0780722780478,32.2745080961307,-14.7685638410887));
#471=CARTESIAN_POINT('Ctrl Pts',(42.9659331512746,31.04930221623,-11.9604116186725));
#472=CARTESIAN_POINT('Ctrl Pts',(44.1766837143423,29.3010443098034,-6.12727274976761));
#473=CARTESIAN_POINT('Ctrl Pts',(44.5,28.7880183409696,-3.09937440540307));
#474=CARTESIAN_POINT('Ctrl Pts',(44.5,28.7880183409696,8.32667268468867E-16));
#475=CARTESIAN_POINT('Origin',(0.,0.,0.));
#476=CARTESIAN_POINT('Origin',(-1.77506243071748E-15,0.,-47.));
#477=CARTESIAN_POINT('Origin',(-1.77506243071748E-15,0.,47.));
#478=UNCERTAINTY_MEASURE_WITH_UNIT(LENGTH_MEASURE(0.01),#482,
'DISTANCE_ACCURACY_VALUE',
'Maximum model space distance between geometric entities at asserted c
onnectivities');
#479=UNCERTAINTY_MEASURE_WITH_UNIT(LENGTH_MEASURE(1.E-6),#482,
'DISTANCE_ACCURACY_VALUE',
'Maximum model space distance between geometric entities at asserted c
onnectivities');
#480=(
GEOMETRIC_REPRESENTATION_CONTEXT(3)
GLOBAL_UNCERTAINTY_ASSIGNED_CONTEXT((#478))
GLOBAL_UNIT_ASSIGNED_CONTEXT((#482,#485,#483))
REPRESENTATION_CONTEXT('','3D')
);
#481=(
GEOMETRIC_REPRESENTATION_CONTEXT(3)
GLOBAL_UNCERTAINTY_ASSIGNED_CONTEXT((#479))
GLOBAL_UNIT_ASSIGNED_CONTEXT((#482,#485,#483))
REPRESENTATION_CONTEXT('','3D')
);
#482=(
LENGTH_UNIT()
NAMED_UNIT(*)
SI_UNIT(.MILLI.,.METRE.)
);
#483=(
NAMED_UNIT(*)
SI_UNIT($,.STERADIAN.)
SOLID_ANGLE_UNIT()
);
#484=DIMENSIONAL_EXPONENTS(0.,0.,0.,0.,0.,0.,0.);
#485=(
CONVERSION_BASED_UNIT('degree',#487)
NAMED_UNIT(#484)
PLANE_ANGLE_UNIT()
);
#486=(
NAMED_UNIT(*)
PLANE_ANGLE_UNIT()
SI_UNIT($,.RADIAN.)
);
#487=PLANE_ANGLE_MEASURE_WITH_UNIT(PLANE_ANGLE_MEASURE(0.01745329252),#486);
#488=SHAPE_DEFINITION_REPRESENTATION(#489,#490);
#489=PRODUCT_DEFINITION_SHAPE('',$,#492);
#490=SHAPE_REPRESENTATION('',(#201),#480);
#491=PRODUCT_DEFINITION_CONTEXT('part definition',#496,'design');
#492=PRODUCT_DEFINITION('TR40090H','TR40090H',#493,#491);
#493=PRODUCT_DEFINITION_FORMATION('',$,#498);
#494=PRODUCT_RELATED_PRODUCT_CATEGORY('TR40090H','TR40090H',(#498));
#495=APPLICATION_PROTOCOL_DEFINITION('international standard',
'automotive_design',2009,#496);
#496=APPLICATION_CONTEXT(
'Core Data for Automotive Mechanical Design Process');
#497=PRODUCT_CONTEXT('part definition',#496,'mechanical');
#498=PRODUCT('TR40090H','TR40090H',$,(#497));
#499=PRESENTATION_STYLE_ASSIGNMENT((#500));
#500=SURFACE_STYLE_USAGE(.BOTH.,#501);
#501=SURFACE_SIDE_STYLE('',(#502));
#502=SURFACE_STYLE_FILL_AREA(#503);
#503=FILL_AREA_STYLE('',(#504));
#504=FILL_AREA_STYLE_COLOUR('',#505);
#505=COLOUR_RGB('',0.8,0.8,0.8);
ENDSEC;
END-ISO-10303-21;
