ISO-10303-21;
HEADER;
FILE_DESCRIPTION( ( 'STEP AP214' ), '1' );
FILE_NAME( 'p:/temp/worker_15/temp/exporttempdir_6940_414_wA8E3/format_0/70062022507(architecture400).stp', '2021-11-25T09:57:34', ( 'License CC BY-ND 4.0' ), ( 'CADENAS' ), ' ', 'PARTsolutions', ' ' );
FILE_SCHEMA( ( 'AUTOMOTIVE_DESIGN { 1 0 10303 214 1 1 1 1 }' ) );
ENDSEC;
DATA;
#1 = MECHANICAL_DESIGN_GEOMETRIC_PRESENTATION_REPRESENTATION( ' ', ( #10, #11, #12, #13, #14, #15, #16 ), #6 );
#2 = PRODUCT_DEFINITION_CONTEXT( '', #17, 'design' );
#3 = APPLICATION_PROTOCOL_DEFINITION( 'international standard', 'automotive_design', 2001, #17 );
#4 = PRODUCT_CATEGORY_RELATIONSHIP( 'NONE', 'NONE', #18, #19 );
#5 = SHAPE_DEFINITION_REPRESENTATION( #20, #21 );
#6 =  ( GEOMETRIC_REPRESENTATION_CONTEXT( 3 )GLOBAL_UNCERTAINTY_ASSIGNED_CONTEXT( ( #24 ) )GLOBAL_UNIT_ASSIGNED_CONTEXT( ( #26, #27, #28 ) )REPRESENTATION_CONTEXT( 'NONE', 'WORKSPACE' ) );
#10 = STYLED_ITEM( '', ( #30 ), #31 );
#11 = STYLED_ITEM( '', ( #32 ), #33 );
#12 = STYLED_ITEM( '', ( #34 ), #35 );
#13 = STYLED_ITEM( '', ( #36 ), #37 );
#14 = STYLED_ITEM( '', ( #38 ), #39 );
#15 = STYLED_ITEM( '', ( #40 ), #41 );
#16 = STYLED_ITEM( '', ( #42 ), #43 );
#17 = APPLICATION_CONTEXT( 'core data for automotive mechanical design processes' );
#18 = PRODUCT_CATEGORY( 'part', 'NONE' );
#19 = PRODUCT_RELATED_PRODUCT_CATEGORY( 'detail', ' ', ( #44 ) );
#20 = PRODUCT_DEFINITION_SHAPE( 'NONE', 'NONE', #45 );
#21 = ADVANCED_BREP_SHAPE_REPRESENTATION( '_70062022507(architecture400)', ( #46, #47 ), #6 );
#24 = UNCERTAINTY_MEASURE_WITH_UNIT( LENGTH_MEASURE( 0.00100000000000000 ), #26, '', '' );
#26 =  ( CONVERSION_BASED_UNIT( 'MILLIMETRE', #50 )LENGTH_UNIT(  )NAMED_UNIT( #53 ) );
#27 =  ( NAMED_UNIT( #55 )PLANE_ANGLE_UNIT(  )SI_UNIT( $, .RADIAN. ) );
#28 =  ( NAMED_UNIT( #55 )SI_UNIT( $, .STERADIAN. )SOLID_ANGLE_UNIT(  ) );
#30 = PRESENTATION_STYLE_ASSIGNMENT( ( #61 ) );
#31 = ADVANCED_FACE( '', ( #62, #63 ), #64, .T. );
#32 = PRESENTATION_STYLE_ASSIGNMENT( ( #65 ) );
#33 = ADVANCED_FACE( '', ( #66, #67 ), #68, .T. );
#34 = PRESENTATION_STYLE_ASSIGNMENT( ( #69 ) );
#35 = ADVANCED_FACE( '', ( #70, #71 ), #72, .T. );
#36 = PRESENTATION_STYLE_ASSIGNMENT( ( #73 ) );
#37 = ADVANCED_FACE( '', ( #74, #75 ), #76, .T. );
#38 = PRESENTATION_STYLE_ASSIGNMENT( ( #77 ) );
#39 = ADVANCED_FACE( '', ( #78, #79 ), #80, .T. );
#40 = PRESENTATION_STYLE_ASSIGNMENT( ( #81 ) );
#41 = ADVANCED_FACE( '', ( #82, #83 ), #84, .F. );
#42 = PRESENTATION_STYLE_ASSIGNMENT( ( #85 ) );
#43 = ADVANCED_FACE( '', ( #86, #87 ), #88, .T. );
#44 = PRODUCT( '_70062022507(architecture400)', '_70062022507(architecture400)', 'PART-_70062022507(architecture400)-DESC', ( #89 ) );
#45 = PRODUCT_DEFINITION( 'NONE', 'NONE', #90, #2 );
#46 = MANIFOLD_SOLID_BREP( '_70062022507(architecture400)', #91 );
#47 = AXIS2_PLACEMENT_3D( '', #92, #93, #94 );
#50 = LENGTH_MEASURE_WITH_UNIT( LENGTH_MEASURE( 1.00000000000000 ), #95 );
#53 = DIMENSIONAL_EXPONENTS( 1.00000000000000, 0.000000000000000, 0.000000000000000, 0.000000000000000, 0.000000000000000, 0.000000000000000, 0.000000000000000 );
#55 = DIMENSIONAL_EXPONENTS( 0.000000000000000, 0.000000000000000, 0.000000000000000, 0.000000000000000, 0.000000000000000, 0.000000000000000, 0.000000000000000 );
#61 = SURFACE_STYLE_USAGE( .BOTH., #96 );
#62 = FACE_OUTER_BOUND( '', #97, .T. );
#63 = FACE_OUTER_BOUND( '', #98, .T. );
#64 = CYLINDRICAL_SURFACE( '', #99, 112.500000000000 );
#65 = SURFACE_STYLE_USAGE( .BOTH., #100 );
#66 = FACE_OUTER_BOUND( '', #101, .T. );
#67 = FACE_OUTER_BOUND( '', #102, .T. );
#68 = CYLINDRICAL_SURFACE( '', #103, 134.000000000000 );
#69 = SURFACE_STYLE_USAGE( .BOTH., #104 );
#70 = FACE_OUTER_BOUND( '', #105, .T. );
#71 = FACE_BOUND( '', #106, .T. );
#72 = PLANE( '', #107 );
#73 = SURFACE_STYLE_USAGE( .BOTH., #108 );
#74 = FACE_BOUND( '', #109, .T. );
#75 = FACE_OUTER_BOUND( '', #110, .T. );
#76 = PLANE( '', #111 );
#77 = SURFACE_STYLE_USAGE( .BOTH., #112 );
#78 = FACE_OUTER_BOUND( '', #113, .T. );
#79 = FACE_BOUND( '', #114, .T. );
#80 = CONICAL_SURFACE( '', #115, 112.500000000000, 0.214060683600000 );
#81 = SURFACE_STYLE_USAGE( .BOTH., #116 );
#82 = FACE_OUTER_BOUND( '', #117, .T. );
#83 = FACE_OUTER_BOUND( '', #118, .T. );
#84 = CYLINDRICAL_SURFACE( '', #119, 81.7000000000000 );
#85 = SURFACE_STYLE_USAGE( .BOTH., #120 );
#86 = FACE_OUTER_BOUND( '', #121, .T. );
#87 = FACE_BOUND( '', #122, .T. );
#88 = PLANE( '', #123 );
#89 = PRODUCT_CONTEXT( '', #17, 'mechanical' );
#90 = PRODUCT_DEFINITION_FORMATION_WITH_SPECIFIED_SOURCE( ' ', 'NONE', #44, .NOT_KNOWN. );
#91 = CLOSED_SHELL( '', ( #33, #37, #41, #35, #31, #39, #43 ) );
#92 = CARTESIAN_POINT( '', ( 0.000000000000000, 0.000000000000000, 0.000000000000000 ) );
#93 = DIRECTION( '', ( 0.000000000000000, 0.000000000000000, 1.00000000000000 ) );
#94 = DIRECTION( '', ( 1.00000000000000, 0.000000000000000, 0.000000000000000 ) );
#95 =  ( LENGTH_UNIT(  )NAMED_UNIT( #53 )SI_UNIT( .MILLI., .METRE. ) );
#96 = SURFACE_SIDE_STYLE( '', ( #125 ) );
#97 = EDGE_LOOP( '', ( #126 ) );
#98 = EDGE_LOOP( '', ( #127 ) );
#99 = AXIS2_PLACEMENT_3D( '', #128, #129, #130 );
#100 = SURFACE_SIDE_STYLE( '', ( #131 ) );
#101 = EDGE_LOOP( '', ( #132 ) );
#102 = EDGE_LOOP( '', ( #133 ) );
#103 = AXIS2_PLACEMENT_3D( '', #134, #135, #136 );
#104 = SURFACE_SIDE_STYLE( '', ( #137 ) );
#105 = EDGE_LOOP( '', ( #138 ) );
#106 = EDGE_LOOP( '', ( #139 ) );
#107 = AXIS2_PLACEMENT_3D( '', #140, #141, #142 );
#108 = SURFACE_SIDE_STYLE( '', ( #143 ) );
#109 = EDGE_LOOP( '', ( #144 ) );
#110 = EDGE_LOOP( '', ( #145 ) );
#111 = AXIS2_PLACEMENT_3D( '', #146, #147, #148 );
#112 = SURFACE_SIDE_STYLE( '', ( #149 ) );
#113 = EDGE_LOOP( '', ( #150 ) );
#114 = EDGE_LOOP( '', ( #151 ) );
#115 = AXIS2_PLACEMENT_3D( '', #152, #153, #154 );
#116 = SURFACE_SIDE_STYLE( '', ( #155 ) );
#117 = EDGE_LOOP( '', ( #156 ) );
#118 = EDGE_LOOP( '', ( #157 ) );
#119 = AXIS2_PLACEMENT_3D( '', #158, #159, #160 );
#120 = SURFACE_SIDE_STYLE( '', ( #161 ) );
#121 = EDGE_LOOP( '', ( #162 ) );
#122 = EDGE_LOOP( '', ( #163 ) );
#123 = AXIS2_PLACEMENT_3D( '', #164, #165, #166 );
#125 = SURFACE_STYLE_FILL_AREA( #167 );
#126 = ORIENTED_EDGE( '', *, *, #168, .T. );
#127 = ORIENTED_EDGE( '', *, *, #169, .F. );
#128 = CARTESIAN_POINT( '', ( 0.000000000000000, 0.000000000000000, 0.000000000000000 ) );
#129 = DIRECTION( '', ( -1.00000000000000, -0.000000000000000, 0.000000000000000 ) );
#130 = DIRECTION( '', ( -0.000000000000000, 0.000000000000000, -1.00000000000000 ) );
#131 = SURFACE_STYLE_FILL_AREA( #170 );
#132 = ORIENTED_EDGE( '', *, *, #171, .T. );
#133 = ORIENTED_EDGE( '', *, *, #172, .F. );
#134 = CARTESIAN_POINT( '', ( 0.000000000000000, 0.000000000000000, 0.000000000000000 ) );
#135 = DIRECTION( '', ( -1.00000000000000, -0.000000000000000, 0.000000000000000 ) );
#136 = DIRECTION( '', ( -0.000000000000000, 0.000000000000000, -1.00000000000000 ) );
#137 = SURFACE_STYLE_FILL_AREA( #173 );
#138 = ORIENTED_EDGE( '', *, *, #169, .T. );
#139 = ORIENTED_EDGE( '', *, *, #174, .F. );
#140 = CARTESIAN_POINT( '', ( 0.000000000000000, 0.000000000000000, 81.7000000000000 ) );
#141 = DIRECTION( '', ( 1.00000000000000, 0.000000000000000, -0.000000000000000 ) );
#142 = DIRECTION( '', ( -0.000000000000000, 0.000000000000000, -1.00000000000000 ) );
#143 = SURFACE_STYLE_FILL_AREA( #175 );
#144 = ORIENTED_EDGE( '', *, *, #176, .T. );
#145 = ORIENTED_EDGE( '', *, *, #171, .F. );
#146 = CARTESIAN_POINT( '', ( -184.000000000000, 0.000000000000000, 134.000000000000 ) );
#147 = DIRECTION( '', ( -1.00000000000000, 0.000000000000000, 0.000000000000000 ) );
#148 = DIRECTION( '', ( 0.000000000000000, 0.000000000000000, 1.00000000000000 ) );
#149 = SURFACE_STYLE_FILL_AREA( #177 );
#150 = ORIENTED_EDGE( '', *, *, #178, .T. );
#151 = ORIENTED_EDGE( '', *, *, #168, .F. );
#152 = CARTESIAN_POINT( '', ( -129.000000000000, 0.000000000000000, 0.000000000000000 ) );
#153 = DIRECTION( '', ( -1.00000000000000, 0.000000000000000, -0.000000000000000 ) );
#154 = DIRECTION( '', ( 0.000000000000000, 0.000000000000000, 1.00000000000000 ) );
#155 = SURFACE_STYLE_FILL_AREA( #179 );
#156 = ORIENTED_EDGE( '', *, *, #174, .T. );
#157 = ORIENTED_EDGE( '', *, *, #176, .F. );
#158 = CARTESIAN_POINT( '', ( 0.000000000000000, 0.000000000000000, 0.000000000000000 ) );
#159 = DIRECTION( '', ( -1.00000000000000, -0.000000000000000, 0.000000000000000 ) );
#160 = DIRECTION( '', ( -0.000000000000000, 0.000000000000000, -1.00000000000000 ) );
#161 = SURFACE_STYLE_FILL_AREA( #180 );
#162 = ORIENTED_EDGE( '', *, *, #172, .T. );
#163 = ORIENTED_EDGE( '', *, *, #178, .F. );
#164 = CARTESIAN_POINT( '', ( -152.000000000000, 0.000000000000000, 117.500000000000 ) );
#165 = DIRECTION( '', ( 1.00000000000000, 0.000000000000000, -0.000000000000000 ) );
#166 = DIRECTION( '', ( -0.000000000000000, 0.000000000000000, -1.00000000000000 ) );
#167 = FILL_AREA_STYLE( '', ( #181 ) );
#168 = EDGE_CURVE( '', #182, #182, #183, .T. );
#169 = EDGE_CURVE( '', #184, #184, #185, .T. );
#170 = FILL_AREA_STYLE( '', ( #186 ) );
#171 = EDGE_CURVE( '', #187, #187, #188, .T. );
#172 = EDGE_CURVE( '', #189, #189, #190, .T. );
#173 = FILL_AREA_STYLE( '', ( #191 ) );
#174 = EDGE_CURVE( '', #192, #192, #193, .T. );
#175 = FILL_AREA_STYLE( '', ( #194 ) );
#176 = EDGE_CURVE( '', #195, #195, #196, .T. );
#177 = FILL_AREA_STYLE( '', ( #197 ) );
#178 = EDGE_CURVE( '', #198, #198, #199, .T. );
#179 = FILL_AREA_STYLE( '', ( #200 ) );
#180 = FILL_AREA_STYLE( '', ( #201 ) );
#181 = FILL_AREA_STYLE_COLOUR( '', #202 );
#182 = VERTEX_POINT( '', #203 );
#183 = CIRCLE( '', #204, 112.500000000000 );
#184 = VERTEX_POINT( '', #205 );
#185 = CIRCLE( '', #206, 112.500000000000 );
#186 = FILL_AREA_STYLE_COLOUR( '', #207 );
#187 = VERTEX_POINT( '', #208 );
#188 = CIRCLE( '', #209, 134.000000000000 );
#189 = VERTEX_POINT( '', #210 );
#190 = CIRCLE( '', #211, 134.000000000000 );
#191 = FILL_AREA_STYLE_COLOUR( '', #212 );
#192 = VERTEX_POINT( '', #213 );
#193 = CIRCLE( '', #214, 81.7000000000000 );
#194 = FILL_AREA_STYLE_COLOUR( '', #215 );
#195 = VERTEX_POINT( '', #216 );
#196 = CIRCLE( '', #217, 81.7000000000000 );
#197 = FILL_AREA_STYLE_COLOUR( '', #218 );
#198 = VERTEX_POINT( '', #219 );
#199 = CIRCLE( '', #220, 117.500000000000 );
#200 = FILL_AREA_STYLE_COLOUR( '', #221 );
#201 = FILL_AREA_STYLE_COLOUR( '', #222 );
#202 = COLOUR_RGB( '', 0.689999997600000, 0.689999997600000, 0.689999997600000 );
#203 = CARTESIAN_POINT( '', ( -129.000000000000, 0.000000000000000, -112.500000000000 ) );
#204 = AXIS2_PLACEMENT_3D( '', #223, #224, #225 );
#205 = CARTESIAN_POINT( '', ( 0.000000000000000, 0.000000000000000, -112.500000000000 ) );
#206 = AXIS2_PLACEMENT_3D( '', #226, #227, #228 );
#207 = COLOUR_RGB( '', 0.689999997600000, 0.689999997600000, 0.689999997600000 );
#208 = CARTESIAN_POINT( '', ( -184.000000000000, 0.000000000000000, -134.000000000000 ) );
#209 = AXIS2_PLACEMENT_3D( '', #229, #230, #231 );
#210 = CARTESIAN_POINT( '', ( -152.000000000000, 0.000000000000000, -134.000000000000 ) );
#211 = AXIS2_PLACEMENT_3D( '', #232, #233, #234 );
#212 = COLOUR_RGB( '', 0.689999997600000, 0.689999997600000, 0.689999997600000 );
#213 = CARTESIAN_POINT( '', ( 0.000000000000000, 0.000000000000000, -81.7000000000000 ) );
#214 = AXIS2_PLACEMENT_3D( '', #235, #236, #237 );
#215 = COLOUR_RGB( '', 0.689999997600000, 0.689999997600000, 0.689999997600000 );
#216 = CARTESIAN_POINT( '', ( -184.000000000000, 0.000000000000000, -81.7000000000000 ) );
#217 = AXIS2_PLACEMENT_3D( '', #238, #239, #240 );
#218 = COLOUR_RGB( '', 0.689999997600000, 0.689999997600000, 0.689999997600000 );
#219 = CARTESIAN_POINT( '', ( -152.000000000000, 0.000000000000000, -117.500000000000 ) );
#220 = AXIS2_PLACEMENT_3D( '', #241, #242, #243 );
#221 = COLOUR_RGB( '', 0.689999997600000, 0.689999997600000, 0.689999997600000 );
#222 = COLOUR_RGB( '', 0.689999997600000, 0.689999997600000, 0.689999997600000 );
#223 = CARTESIAN_POINT( '', ( -129.000000000000, 0.000000000000000, 0.000000000000000 ) );
#224 = DIRECTION( '', ( 1.00000000000000, 0.000000000000000, -0.000000000000000 ) );
#225 = DIRECTION( '', ( -0.000000000000000, 0.000000000000000, -1.00000000000000 ) );
#226 = CARTESIAN_POINT( '', ( 0.000000000000000, 0.000000000000000, 0.000000000000000 ) );
#227 = DIRECTION( '', ( 1.00000000000000, 0.000000000000000, -0.000000000000000 ) );
#228 = DIRECTION( '', ( -0.000000000000000, 0.000000000000000, -1.00000000000000 ) );
#229 = CARTESIAN_POINT( '', ( -184.000000000000, 0.000000000000000, 0.000000000000000 ) );
#230 = DIRECTION( '', ( 1.00000000000000, 0.000000000000000, -0.000000000000000 ) );
#231 = DIRECTION( '', ( -0.000000000000000, 0.000000000000000, -1.00000000000000 ) );
#232 = CARTESIAN_POINT( '', ( -152.000000000000, 0.000000000000000, 0.000000000000000 ) );
#233 = DIRECTION( '', ( 1.00000000000000, 0.000000000000000, -0.000000000000000 ) );
#234 = DIRECTION( '', ( -0.000000000000000, 0.000000000000000, -1.00000000000000 ) );
#235 = CARTESIAN_POINT( '', ( 0.000000000000000, 0.000000000000000, 0.000000000000000 ) );
#236 = DIRECTION( '', ( 1.00000000000000, 0.000000000000000, -0.000000000000000 ) );
#237 = DIRECTION( '', ( -0.000000000000000, 0.000000000000000, -1.00000000000000 ) );
#238 = CARTESIAN_POINT( '', ( -184.000000000000, 0.000000000000000, 0.000000000000000 ) );
#239 = DIRECTION( '', ( 1.00000000000000, 0.000000000000000, -0.000000000000000 ) );
#240 = DIRECTION( '', ( -0.000000000000000, 0.000000000000000, -1.00000000000000 ) );
#241 = CARTESIAN_POINT( '', ( -152.000000000000, 0.000000000000000, 0.000000000000000 ) );
#242 = DIRECTION( '', ( 1.00000000000000, 0.000000000000000, -0.000000000000000 ) );
#243 = DIRECTION( '', ( -0.000000000000000, 0.000000000000000, -1.00000000000000 ) );
ENDSEC;
END-ISO-10303-21;
