ISO-10303-21;
HEADER;
FILE_DESCRIPTION( ( '' ), '1' );
FILE_NAME( '//se01002/users/anro/AGRU_25705011033_PE_100_schwarz_Rohr__5m_110X3_4__SDR33__ISO_S-16_05.stp', '2018-01-02T12:23:38', ( '' ), ( '' ), ' ', ' ', ' ' );
FILE_SCHEMA( ( 'automotive_design' ) );
ENDSEC;
DATA;
#1 = MECHANICAL_DESIGN_GEOMETRIC_PRESENTATION_REPRESENTATION( ' ', ( #10, #11, #12, #13, #14, #15, #16, #17, #18, #19, #20, #21, #22, #23, #24, #25, #26, #27, #28, #29, #30, #31, #32, #33, #34, #35, #36 ), #6 );
#2 = PRODUCT_DEFINITION_CONTEXT( '', #37, 'design' );
#3 = APPLICATION_PROTOCOL_DEFINITION( 'INTERNATIONAL STANDARD', 'automotive_design', 1994, #37 );
#4 = PRODUCT_CATEGORY_RELATIONSHIP( 'NONE', 'NONE', #38, #39 );
#5 = SHAPE_DEFINITION_REPRESENTATION( #40, #41 );
#6 =  ( GEOMETRIC_REPRESENTATION_CONTEXT( 3 )GLOBAL_UNCERTAINTY_ASSIGNED_CONTEXT( ( #44 ) )GLOBAL_UNIT_ASSIGNED_CONTEXT( ( #46, #47, #48 ) )REPRESENTATION_CONTEXT( 'NONE', 'WORKSPACE' ) );
#10 = STYLED_ITEM( '', ( #50 ), #51 );
#11 = STYLED_ITEM( '', ( #52 ), #53 );
#12 = STYLED_ITEM( '', ( #54 ), #55 );
#13 = STYLED_ITEM( '', ( #56 ), #57 );
#14 = STYLED_ITEM( '', ( #58 ), #59 );
#15 = STYLED_ITEM( '', ( #60 ), #61 );
#16 = STYLED_ITEM( '', ( #62 ), #63 );
#17 = STYLED_ITEM( '', ( #64 ), #65 );
#18 = STYLED_ITEM( '', ( #66 ), #67 );
#19 = STYLED_ITEM( '', ( #68 ), #69 );
#20 = STYLED_ITEM( '', ( #70 ), #71 );
#21 = STYLED_ITEM( '', ( #72 ), #73 );
#22 = STYLED_ITEM( '', ( #74 ), #75 );
#23 = STYLED_ITEM( '', ( #76 ), #77 );
#24 = STYLED_ITEM( '', ( #78 ), #79 );
#25 = STYLED_ITEM( '', ( #80 ), #81 );
#26 = STYLED_ITEM( '', ( #82 ), #83 );
#27 = STYLED_ITEM( '', ( #84 ), #85 );
#28 = STYLED_ITEM( '', ( #86 ), #87 );
#29 = STYLED_ITEM( '', ( #88 ), #89 );
#30 = STYLED_ITEM( '', ( #90 ), #91 );
#31 = STYLED_ITEM( '', ( #92 ), #93 );
#32 = STYLED_ITEM( '', ( #94 ), #95 );
#33 = STYLED_ITEM( '', ( #96 ), #97 );
#34 = STYLED_ITEM( '', ( #98 ), #99 );
#35 = STYLED_ITEM( '', ( #100 ), #101 );
#36 = STYLED_ITEM( '', ( #102 ), #103 );
#37 = APPLICATION_CONTEXT( ' ' );
#38 = PRODUCT_CATEGORY( 'part', 'NONE' );
#39 = PRODUCT_RELATED_PRODUCT_CATEGORY( 'detail', ' ', ( #104 ) );
#40 = PRODUCT_DEFINITION_SHAPE( 'NONE', 'NONE', #105 );
#41 = ADVANCED_BREP_SHAPE_REPRESENTATION( '1', ( #79, #106 ), #6 );
#44 = UNCERTAINTY_MEASURE_WITH_UNIT( LENGTH_MEASURE( 1.00000000000000E-006 ), #46, '', '' );
#46 =  ( CONVERSION_BASED_UNIT( 'MILLIMETRE', #109 )LENGTH_UNIT(  )NAMED_UNIT( #112 ) );
#47 =  ( NAMED_UNIT( #114 )PLANE_ANGLE_UNIT(  )SI_UNIT( $, .RADIAN. ) );
#48 =  ( NAMED_UNIT( #114 )SOLID_ANGLE_UNIT(  )SI_UNIT( $, .STERADIAN. ) );
#50 = PRESENTATION_STYLE_ASSIGNMENT( ( #120 ) );
#51 = EDGE_CURVE( '', #101, #91, #121, .T. );
#52 = PRESENTATION_STYLE_ASSIGNMENT( ( #122 ) );
#53 = VERTEX_POINT( '', #123 );
#54 = PRESENTATION_STYLE_ASSIGNMENT( ( #124 ) );
#55 = EDGE_CURVE( '', #101, #103, #125, .T. );
#56 = PRESENTATION_STYLE_ASSIGNMENT( ( #126 ) );
#57 = EDGE_CURVE( '', #91, #101, #127, .T. );
#58 = PRESENTATION_STYLE_ASSIGNMENT( ( #128 ) );
#59 = ADVANCED_FACE( '', ( #129, #130 ), #131, .F. );
#60 = PRESENTATION_STYLE_ASSIGNMENT( ( #132 ) );
#61 = EDGE_CURVE( '', #71, #53, #133, .T. );
#62 = PRESENTATION_STYLE_ASSIGNMENT( ( #134 ) );
#63 = VERTEX_POINT( '', #135 );
#64 = PRESENTATION_STYLE_ASSIGNMENT( ( #136 ) );
#65 = EDGE_CURVE( '', #63, #97, #137, .T. );
#66 = PRESENTATION_STYLE_ASSIGNMENT( ( #138 ) );
#67 = VERTEX_POINT( '', #139 );
#68 = PRESENTATION_STYLE_ASSIGNMENT( ( #140 ) );
#69 = EDGE_CURVE( '', #53, #71, #141, .T. );
#70 = PRESENTATION_STYLE_ASSIGNMENT( ( #142 ) );
#71 = VERTEX_POINT( '', #143 );
#72 = PRESENTATION_STYLE_ASSIGNMENT( ( #144 ) );
#73 = EDGE_CURVE( '', #67, #103, #145, .T. );
#74 = PRESENTATION_STYLE_ASSIGNMENT( ( #146 ) );
#75 = EDGE_CURVE( '', #71, #97, #147, .T. );
#76 = PRESENTATION_STYLE_ASSIGNMENT( ( #148 ) );
#77 = ADVANCED_FACE( '', ( #149 ), #150, .T. );
#78 = PRESENTATION_STYLE_ASSIGNMENT( ( #151 ) );
#79 = MANIFOLD_SOLID_BREP( '1', #152 );
#80 = PRESENTATION_STYLE_ASSIGNMENT( ( #153 ) );
#81 = EDGE_CURVE( '', #97, #63, #154, .T. );
#82 = PRESENTATION_STYLE_ASSIGNMENT( ( #155 ) );
#83 = ADVANCED_FACE( '', ( #156 ), #157, .F. );
#84 = PRESENTATION_STYLE_ASSIGNMENT( ( #158 ) );
#85 = ADVANCED_FACE( '', ( #159 ), #160, .F. );
#86 = PRESENTATION_STYLE_ASSIGNMENT( ( #161 ) );
#87 = EDGE_CURVE( '', #103, #67, #162, .T. );
#88 = PRESENTATION_STYLE_ASSIGNMENT( ( #163 ) );
#89 = ADVANCED_FACE( '', ( #164 ), #165, .T. );
#90 = PRESENTATION_STYLE_ASSIGNMENT( ( #166 ) );
#91 = VERTEX_POINT( '', #167 );
#92 = PRESENTATION_STYLE_ASSIGNMENT( ( #168 ) );
#93 = EDGE_CURVE( '', #63, #53, #169, .T. );
#94 = PRESENTATION_STYLE_ASSIGNMENT( ( #170 ) );
#95 = EDGE_CURVE( '', #67, #91, #171, .T. );
#96 = PRESENTATION_STYLE_ASSIGNMENT( ( #172 ) );
#97 = VERTEX_POINT( '', #173 );
#98 = PRESENTATION_STYLE_ASSIGNMENT( ( #174 ) );
#99 = ADVANCED_FACE( '', ( #175, #176 ), #177, .T. );
#100 = PRESENTATION_STYLE_ASSIGNMENT( ( #178 ) );
#101 = VERTEX_POINT( '', #179 );
#102 = PRESENTATION_STYLE_ASSIGNMENT( ( #180 ) );
#103 = VERTEX_POINT( '', #181 );
#104 = PRODUCT( '1', '1', 'PART-1-DESC', ( #182 ) );
#105 = PRODUCT_DEFINITION( 'NONE', 'NONE', #183, #2 );
#106 = AXIS2_PLACEMENT_3D( '', #184, #185, #186 );
#109 = LENGTH_MEASURE_WITH_UNIT( LENGTH_MEASURE( 1.00000000000000 ), #187 );
#112 = DIMENSIONAL_EXPONENTS( 1.00000000000000, 0.000000000000000, 0.000000000000000, 0.000000000000000, 0.000000000000000, 0.000000000000000, 0.000000000000000 );
#114 = DIMENSIONAL_EXPONENTS( 0.000000000000000, 0.000000000000000, 0.000000000000000, 0.000000000000000, 0.000000000000000, 0.000000000000000, 0.000000000000000 );
#120 = CURVE_STYLE( '', #188, POSITIVE_LENGTH_MEASURE( 1.00000000000000E-006 ), #189 );
#121 = CIRCLE( '', #190, 51.6000000000000 );
#122 = POINT_STYLE( ' ', #191, POSITIVE_LENGTH_MEASURE( 1.00000000000000E-006 ), #192 );
#123 = CARTESIAN_POINT( '', ( 0.000000000000000, 6.73533494602307E-015, 55.0000000000000 ) );
#124 = CURVE_STYLE( '', #193, POSITIVE_LENGTH_MEASURE( 1.00000000000000E-006 ), #194 );
#125 = LINE( '', #195, #196 );
#126 = CURVE_STYLE( '', #197, POSITIVE_LENGTH_MEASURE( 1.00000000000000E-006 ), #198 );
#127 = CIRCLE( '', #199, 51.6000000000000 );
#128 = SURFACE_STYLE_USAGE( .BOTH., #200 );
#129 = FACE_OUTER_BOUND( '', #201, .T. );
#130 = FACE_BOUND( '', #202, .T. );
#131 = PLANE( '', #203 );
#132 = CURVE_STYLE( '', #204, POSITIVE_LENGTH_MEASURE( 1.00000000000000E-006 ), #205 );
#133 = CIRCLE( '', #206, 55.0000000000000 );
#134 = POINT_STYLE( ' ', #207, POSITIVE_LENGTH_MEASURE( 1.00000000000000E-006 ), #208 );
#135 = CARTESIAN_POINT( '', ( 5000.00000000000, 6.73533494602307E-015, 55.0000000000000 ) );
#136 = CURVE_STYLE( '', #209, POSITIVE_LENGTH_MEASURE( 1.00000000000000E-006 ), #210 );
#137 = CIRCLE( '', #211, 55.0000000000000 );
#138 = POINT_STYLE( ' ', #212, POSITIVE_LENGTH_MEASURE( 1.00000000000000E-006 ), #213 );
#139 = CARTESIAN_POINT( '', ( 0.000000000000000, 0.000000000000000, -51.6000000000000 ) );
#140 = CURVE_STYLE( '', #214, POSITIVE_LENGTH_MEASURE( 1.00000000000000E-006 ), #215 );
#141 = CIRCLE( '', #216, 55.0000000000000 );
#142 = POINT_STYLE( ' ', #217, POSITIVE_LENGTH_MEASURE( 1.00000000000000E-006 ), #218 );
#143 = CARTESIAN_POINT( '', ( 0.000000000000000, 0.000000000000000, -55.0000000000000 ) );
#144 = CURVE_STYLE( '', #219, POSITIVE_LENGTH_MEASURE( 1.00000000000000E-006 ), #220 );
#145 = CIRCLE( '', #221, 51.6000000000000 );
#146 = CURVE_STYLE( '', #222, POSITIVE_LENGTH_MEASURE( 1.00000000000000E-006 ), #223 );
#147 = LINE( '', #224, #225 );
#148 = SURFACE_STYLE_USAGE( .BOTH., #226 );
#149 = FACE_OUTER_BOUND( '', #227, .T. );
#150 = CYLINDRICAL_SURFACE( '', #228, 55.0000000000000 );
#151 = SURFACE_STYLE_USAGE( .BOTH., #229 );
#152 = CLOSED_SHELL( '', ( #89, #85, #83, #77, #99, #59 ) );
#153 = CURVE_STYLE( '', #230, POSITIVE_LENGTH_MEASURE( 1.00000000000000E-006 ), #231 );
#154 = CIRCLE( '', #232, 55.0000000000000 );
#155 = SURFACE_STYLE_USAGE( .BOTH., #233 );
#156 = FACE_OUTER_BOUND( '', #234, .T. );
#157 = CYLINDRICAL_SURFACE( '', #235, 51.6000000000000 );
#158 = SURFACE_STYLE_USAGE( .BOTH., #236 );
#159 = FACE_OUTER_BOUND( '', #237, .T. );
#160 = CYLINDRICAL_SURFACE( '', #238, 51.6000000000000 );
#161 = CURVE_STYLE( '', #239, POSITIVE_LENGTH_MEASURE( 1.00000000000000E-006 ), #240 );
#162 = CIRCLE( '', #241, 51.6000000000000 );
#163 = SURFACE_STYLE_USAGE( .BOTH., #242 );
#164 = FACE_OUTER_BOUND( '', #243, .T. );
#165 = CYLINDRICAL_SURFACE( '', #244, 55.0000000000000 );
#166 = POINT_STYLE( ' ', #245, POSITIVE_LENGTH_MEASURE( 1.00000000000000E-006 ), #246 );
#167 = CARTESIAN_POINT( '', ( 5000.00000000000, 0.000000000000000, -51.6000000000000 ) );
#168 = CURVE_STYLE( '', #247, POSITIVE_LENGTH_MEASURE( 1.00000000000000E-006 ), #248 );
#169 = LINE( '', #249, #250 );
#170 = CURVE_STYLE( '', #251, POSITIVE_LENGTH_MEASURE( 1.00000000000000E-006 ), #252 );
#171 = LINE( '', #253, #254 );
#172 = POINT_STYLE( ' ', #255, POSITIVE_LENGTH_MEASURE( 1.00000000000000E-006 ), #256 );
#173 = CARTESIAN_POINT( '', ( 5000.00000000000, 0.000000000000000, -55.0000000000000 ) );
#174 = SURFACE_STYLE_USAGE( .BOTH., #257 );
#175 = FACE_OUTER_BOUND( '', #258, .T. );
#176 = FACE_BOUND( '', #259, .T. );
#177 = PLANE( '', #260 );
#178 = POINT_STYLE( ' ', #261, POSITIVE_LENGTH_MEASURE( 1.00000000000000E-006 ), #262 );
#179 = CARTESIAN_POINT( '', ( 5000.00000000000, 6.31896878572347E-015, 51.6000000000000 ) );
#180 = POINT_STYLE( ' ', #263, POSITIVE_LENGTH_MEASURE( 1.00000000000000E-006 ), #264 );
#181 = CARTESIAN_POINT( '', ( 0.000000000000000, 6.31896878572347E-015, 51.6000000000000 ) );
#182 = PRODUCT_CONTEXT( '', #37, 'mechanical' );
#183 = PRODUCT_DEFINITION_FORMATION_WITH_SPECIFIED_SOURCE( ' ', 'NONE', #104, .NOT_KNOWN. );
#184 = CARTESIAN_POINT( '', ( 0.000000000000000, 0.000000000000000, 0.000000000000000 ) );
#185 = DIRECTION( '', ( 0.000000000000000, 0.000000000000000, 1.00000000000000 ) );
#186 = DIRECTION( '', ( 1.00000000000000, 0.000000000000000, 0.000000000000000 ) );
#187 =  ( NAMED_UNIT( #112 )LENGTH_UNIT(  )SI_UNIT( .MILLI., .METRE. ) );
#188 = DRAUGHTING_PRE_DEFINED_CURVE_FONT( 'continuous' );
#189 = COLOUR_RGB( '', 0.689999997615810, 0.689999997615810, 0.689999997615810 );
#190 = AXIS2_PLACEMENT_3D( '', #266, #267, #268 );
#191 = PRE_DEFINED_MARKER( '' );
#192 = COLOUR_RGB( '', 0.689999997615810, 0.689999997615810, 0.689999997615810 );
#193 = DRAUGHTING_PRE_DEFINED_CURVE_FONT( 'continuous' );
#194 = COLOUR_RGB( '', 0.689999997615810, 0.689999997615810, 0.689999997615810 );
#195 = CARTESIAN_POINT( '', ( 0.000000000000000, 6.31896878572347E-015, 51.6000000000000 ) );
#196 = VECTOR( '', #269, 1.00000000000000 );
#197 = DRAUGHTING_PRE_DEFINED_CURVE_FONT( 'continuous' );
#198 = COLOUR_RGB( '', 0.689999997615810, 0.689999997615810, 0.689999997615810 );
#199 = AXIS2_PLACEMENT_3D( '', #270, #271, #272 );
#200 = SURFACE_SIDE_STYLE( '', ( #273 ) );
#201 = EDGE_LOOP( '', ( #274, #275 ) );
#202 = EDGE_LOOP( '', ( #276, #277 ) );
#203 = AXIS2_PLACEMENT_3D( '', #278, #279, #280 );
#204 = DRAUGHTING_PRE_DEFINED_CURVE_FONT( 'continuous' );
#205 = COLOUR_RGB( '', 0.689999997615810, 0.689999997615810, 0.689999997615810 );
#206 = AXIS2_PLACEMENT_3D( '', #281, #282, #283 );
#207 = PRE_DEFINED_MARKER( '' );
#208 = COLOUR_RGB( '', 0.689999997615810, 0.689999997615810, 0.689999997615810 );
#209 = DRAUGHTING_PRE_DEFINED_CURVE_FONT( 'continuous' );
#210 = COLOUR_RGB( '', 0.689999997615810, 0.689999997615810, 0.689999997615810 );
#211 = AXIS2_PLACEMENT_3D( '', #284, #285, #286 );
#212 = PRE_DEFINED_MARKER( '' );
#213 = COLOUR_RGB( '', 0.689999997615810, 0.689999997615810, 0.689999997615810 );
#214 = DRAUGHTING_PRE_DEFINED_CURVE_FONT( 'continuous' );
#215 = COLOUR_RGB( '', 0.689999997615810, 0.689999997615810, 0.689999997615810 );
#216 = AXIS2_PLACEMENT_3D( '', #287, #288, #289 );
#217 = PRE_DEFINED_MARKER( '' );
#218 = COLOUR_RGB( '', 0.689999997615810, 0.689999997615810, 0.689999997615810 );
#219 = DRAUGHTING_PRE_DEFINED_CURVE_FONT( 'continuous' );
#220 = COLOUR_RGB( '', 0.689999997615810, 0.689999997615810, 0.689999997615810 );
#221 = AXIS2_PLACEMENT_3D( '', #290, #291, #292 );
#222 = DRAUGHTING_PRE_DEFINED_CURVE_FONT( 'continuous' );
#223 = COLOUR_RGB( '', 0.689999997615810, 0.689999997615810, 0.689999997615810 );
#224 = CARTESIAN_POINT( '', ( 0.000000000000000, -6.73533494602307E-015, -55.0000000000000 ) );
#225 = VECTOR( '', #293, 1.00000000000000 );
#226 = SURFACE_SIDE_STYLE( '', ( #294 ) );
#227 = EDGE_LOOP( '', ( #295, #296, #297, #298 ) );
#228 = AXIS2_PLACEMENT_3D( '', #299, #300, #301 );
#229 = SURFACE_SIDE_STYLE( '', ( #302 ) );
#230 = DRAUGHTING_PRE_DEFINED_CURVE_FONT( 'continuous' );
#231 = COLOUR_RGB( '', 0.689999997615810, 0.689999997615810, 0.689999997615810 );
#232 = AXIS2_PLACEMENT_3D( '', #303, #304, #305 );
#233 = SURFACE_SIDE_STYLE( '', ( #306 ) );
#234 = EDGE_LOOP( '', ( #307, #308, #309, #310 ) );
#235 = AXIS2_PLACEMENT_3D( '', #311, #312, #313 );
#236 = SURFACE_SIDE_STYLE( '', ( #314 ) );
#237 = EDGE_LOOP( '', ( #315, #316, #317, #318 ) );
#238 = AXIS2_PLACEMENT_3D( '', #319, #320, #321 );
#239 = DRAUGHTING_PRE_DEFINED_CURVE_FONT( 'continuous' );
#240 = COLOUR_RGB( '', 0.689999997615810, 0.689999997615810, 0.689999997615810 );
#241 = AXIS2_PLACEMENT_3D( '', #322, #323, #324 );
#242 = SURFACE_SIDE_STYLE( '', ( #325 ) );
#243 = EDGE_LOOP( '', ( #326, #327, #328, #329 ) );
#244 = AXIS2_PLACEMENT_3D( '', #330, #331, #332 );
#245 = PRE_DEFINED_MARKER( '' );
#246 = COLOUR_RGB( '', 0.689999997615810, 0.689999997615810, 0.689999997615810 );
#247 = DRAUGHTING_PRE_DEFINED_CURVE_FONT( 'continuous' );
#248 = COLOUR_RGB( '', 0.689999997615810, 0.689999997615810, 0.689999997615810 );
#249 = CARTESIAN_POINT( '', ( 0.000000000000000, 6.73533494602307E-015, 55.0000000000000 ) );
#250 = VECTOR( '', #333, 1.00000000000000 );
#251 = DRAUGHTING_PRE_DEFINED_CURVE_FONT( 'continuous' );
#252 = COLOUR_RGB( '', 0.689999997615810, 0.689999997615810, 0.689999997615810 );
#253 = CARTESIAN_POINT( '', ( 0.000000000000000, -6.31896878572347E-015, -51.6000000000000 ) );
#254 = VECTOR( '', #334, 1.00000000000000 );
#255 = PRE_DEFINED_MARKER( '' );
#256 = COLOUR_RGB( '', 0.689999997615810, 0.689999997615810, 0.689999997615810 );
#257 = SURFACE_SIDE_STYLE( '', ( #335 ) );
#258 = EDGE_LOOP( '', ( #336, #337 ) );
#259 = EDGE_LOOP( '', ( #338, #339 ) );
#260 = AXIS2_PLACEMENT_3D( '', #340, #341, #342 );
#261 = PRE_DEFINED_MARKER( '' );
#262 = COLOUR_RGB( '', 0.689999997615810, 0.689999997615810, 0.689999997615810 );
#263 = PRE_DEFINED_MARKER( '' );
#264 = COLOUR_RGB( '', 0.689999997615810, 0.689999997615810, 0.689999997615810 );
#266 = CARTESIAN_POINT( '', ( 5000.00000000000, 0.000000000000000, 0.000000000000000 ) );
#267 = DIRECTION( '', ( 1.00000000000000, 0.000000000000000, 0.000000000000000 ) );
#268 = DIRECTION( '', ( 0.000000000000000, 0.000000000000000, -1.00000000000000 ) );
#269 = DIRECTION( '', ( -1.00000000000000, 0.000000000000000, 0.000000000000000 ) );
#270 = CARTESIAN_POINT( '', ( 5000.00000000000, 0.000000000000000, 0.000000000000000 ) );
#271 = DIRECTION( '', ( 1.00000000000000, 0.000000000000000, 0.000000000000000 ) );
#272 = DIRECTION( '', ( 0.000000000000000, 0.000000000000000, -1.00000000000000 ) );
#273 = SURFACE_STYLE_FILL_AREA( #343 );
#274 = ORIENTED_EDGE( '', *, *, #61, .F. );
#275 = ORIENTED_EDGE( '', *, *, #69, .F. );
#276 = ORIENTED_EDGE( '', *, *, #73, .T. );
#277 = ORIENTED_EDGE( '', *, *, #87, .T. );
#278 = CARTESIAN_POINT( '', ( 0.000000000000000, 0.000000000000000, 0.000000000000000 ) );
#279 = DIRECTION( '', ( 1.00000000000000, 0.000000000000000, 0.000000000000000 ) );
#280 = DIRECTION( '', ( 0.000000000000000, 0.000000000000000, -1.00000000000000 ) );
#281 = CARTESIAN_POINT( '', ( 0.000000000000000, 0.000000000000000, 0.000000000000000 ) );
#282 = DIRECTION( '', ( 1.00000000000000, -0.000000000000000, 0.000000000000000 ) );
#283 = DIRECTION( '', ( 0.000000000000000, 0.000000000000000, -1.00000000000000 ) );
#284 = CARTESIAN_POINT( '', ( 5000.00000000000, 0.000000000000000, 0.000000000000000 ) );
#285 = DIRECTION( '', ( -1.00000000000000, 0.000000000000000, 0.000000000000000 ) );
#286 = DIRECTION( '', ( 0.000000000000000, 0.000000000000000, -1.00000000000000 ) );
#287 = CARTESIAN_POINT( '', ( 0.000000000000000, 0.000000000000000, 0.000000000000000 ) );
#288 = DIRECTION( '', ( 1.00000000000000, -0.000000000000000, 0.000000000000000 ) );
#289 = DIRECTION( '', ( 0.000000000000000, 0.000000000000000, -1.00000000000000 ) );
#290 = CARTESIAN_POINT( '', ( 0.000000000000000, 0.000000000000000, 0.000000000000000 ) );
#291 = DIRECTION( '', ( 1.00000000000000, -0.000000000000000, 0.000000000000000 ) );
#292 = DIRECTION( '', ( 0.000000000000000, 0.000000000000000, -1.00000000000000 ) );
#293 = DIRECTION( '', ( 1.00000000000000, 0.000000000000000, 0.000000000000000 ) );
#294 = SURFACE_STYLE_FILL_AREA( #344 );
#295 = ORIENTED_EDGE( '', *, *, #75, .T. );
#296 = ORIENTED_EDGE( '', *, *, #81, .T. );
#297 = ORIENTED_EDGE( '', *, *, #93, .T. );
#298 = ORIENTED_EDGE( '', *, *, #69, .T. );
#299 = CARTESIAN_POINT( '', ( 0.000000000000000, 0.000000000000000, 0.000000000000000 ) );
#300 = DIRECTION( '', ( -1.00000000000000, -0.000000000000000, -0.000000000000000 ) );
#301 = DIRECTION( '', ( 0.000000000000000, 0.000000000000000, -1.00000000000000 ) );
#302 = SURFACE_STYLE_FILL_AREA( #345 );
#303 = CARTESIAN_POINT( '', ( 5000.00000000000, 0.000000000000000, 0.000000000000000 ) );
#304 = DIRECTION( '', ( -1.00000000000000, 0.000000000000000, 0.000000000000000 ) );
#305 = DIRECTION( '', ( 0.000000000000000, 0.000000000000000, -1.00000000000000 ) );
#306 = SURFACE_STYLE_FILL_AREA( #346 );
#307 = ORIENTED_EDGE( '', *, *, #95, .T. );
#308 = ORIENTED_EDGE( '', *, *, #57, .T. );
#309 = ORIENTED_EDGE( '', *, *, #55, .T. );
#310 = ORIENTED_EDGE( '', *, *, #73, .F. );
#311 = CARTESIAN_POINT( '', ( 0.000000000000000, 0.000000000000000, 0.000000000000000 ) );
#312 = DIRECTION( '', ( -1.00000000000000, -0.000000000000000, -0.000000000000000 ) );
#313 = DIRECTION( '', ( 0.000000000000000, 0.000000000000000, -1.00000000000000 ) );
#314 = SURFACE_STYLE_FILL_AREA( #347 );
#315 = ORIENTED_EDGE( '', *, *, #95, .F. );
#316 = ORIENTED_EDGE( '', *, *, #87, .F. );
#317 = ORIENTED_EDGE( '', *, *, #55, .F. );
#318 = ORIENTED_EDGE( '', *, *, #51, .T. );
#319 = CARTESIAN_POINT( '', ( 0.000000000000000, 0.000000000000000, 0.000000000000000 ) );
#320 = DIRECTION( '', ( -1.00000000000000, -0.000000000000000, -0.000000000000000 ) );
#321 = DIRECTION( '', ( 0.000000000000000, 0.000000000000000, -1.00000000000000 ) );
#322 = CARTESIAN_POINT( '', ( 0.000000000000000, 0.000000000000000, 0.000000000000000 ) );
#323 = DIRECTION( '', ( 1.00000000000000, -0.000000000000000, 0.000000000000000 ) );
#324 = DIRECTION( '', ( 0.000000000000000, 0.000000000000000, -1.00000000000000 ) );
#325 = SURFACE_STYLE_FILL_AREA( #348 );
#326 = ORIENTED_EDGE( '', *, *, #75, .F. );
#327 = ORIENTED_EDGE( '', *, *, #61, .T. );
#328 = ORIENTED_EDGE( '', *, *, #93, .F. );
#329 = ORIENTED_EDGE( '', *, *, #65, .T. );
#330 = CARTESIAN_POINT( '', ( 0.000000000000000, 0.000000000000000, 0.000000000000000 ) );
#331 = DIRECTION( '', ( -1.00000000000000, -0.000000000000000, -0.000000000000000 ) );
#332 = DIRECTION( '', ( 0.000000000000000, 0.000000000000000, -1.00000000000000 ) );
#333 = DIRECTION( '', ( -1.00000000000000, -0.000000000000000, -0.000000000000000 ) );
#334 = DIRECTION( '', ( 1.00000000000000, 0.000000000000000, 0.000000000000000 ) );
#335 = SURFACE_STYLE_FILL_AREA( #349 );
#336 = ORIENTED_EDGE( '', *, *, #81, .F. );
#337 = ORIENTED_EDGE( '', *, *, #65, .F. );
#338 = ORIENTED_EDGE( '', *, *, #57, .F. );
#339 = ORIENTED_EDGE( '', *, *, #51, .F. );
#340 = CARTESIAN_POINT( '', ( 5000.00000000000, 0.000000000000000, 0.000000000000000 ) );
#341 = DIRECTION( '', ( 1.00000000000000, 0.000000000000000, 0.000000000000000 ) );
#342 = DIRECTION( '', ( 0.000000000000000, 0.000000000000000, -1.00000000000000 ) );
#343 = FILL_AREA_STYLE( '', ( #350 ) );
#344 = FILL_AREA_STYLE( '', ( #351 ) );
#345 = FILL_AREA_STYLE( '', ( #352 ) );
#346 = FILL_AREA_STYLE( '', ( #353 ) );
#347 = FILL_AREA_STYLE( '', ( #354 ) );
#348 = FILL_AREA_STYLE( '', ( #355 ) );
#349 = FILL_AREA_STYLE( '', ( #356 ) );
#350 = FILL_AREA_STYLE_COLOUR( '', #357 );
#351 = FILL_AREA_STYLE_COLOUR( '', #358 );
#352 = FILL_AREA_STYLE_COLOUR( '', #359 );
#353 = FILL_AREA_STYLE_COLOUR( '', #360 );
#354 = FILL_AREA_STYLE_COLOUR( '', #361 );
#355 = FILL_AREA_STYLE_COLOUR( '', #362 );
#356 = FILL_AREA_STYLE_COLOUR( '', #363 );
#357 = COLOUR_RGB( '', 0.689999997615810, 0.689999997615810, 0.689999997615810 );
#358 = COLOUR_RGB( '', 0.689999997615810, 0.689999997615810, 0.689999997615810 );
#359 = COLOUR_RGB( '', 0.689999997615810, 0.689999997615810, 0.689999997615810 );
#360 = COLOUR_RGB( '', 0.689999997615810, 0.689999997615810, 0.689999997615810 );
#361 = COLOUR_RGB( '', 0.689999997615810, 0.689999997615810, 0.689999997615810 );
#362 = COLOUR_RGB( '', 0.689999997615810, 0.689999997615810, 0.689999997615810 );
#363 = COLOUR_RGB( '', 0.689999997615810, 0.689999997615810, 0.689999997615810 );
ENDSEC;
END-ISO-10303-21;
