ISO-10303-21;
HEADER;
/****************************************************************
 * Generated by software with PDE/Lib inside                    *
 * PDElib Version v51a, created Mon 03/22/2010                  *
 * International Technegroup Inc. (www.iti-oh.com)              *
 ****************************************************************/
FILE_DESCRIPTION((''),'2;1');
FILE_NAME('R:\\Neue Zeichnungdateien ab Januar 2010\\Edelstahlprodukte\\Verbindungsplatten\\Step\\127843.stp','2010-07-21T15:20:31',('DMK009'),(''),'Autodesk Inventor 2010','Autodesk Inventor 2010','');
FILE_SCHEMA(('AUTOMOTIVE_DESIGN { 1 0 10303 214 1 1 1 1 }'));
ENDSEC;
DATA;
#5=APPLICATION_CONTEXT('automotive design');
#6=APPLICATION_PROTOCOL_DEFINITION('International Standard','automotive_design',2001,#5);
#7=PRODUCT_CONTEXT('',#5,'mechanical');
#8=PRODUCT('Winkelplatte','Winkelplatte',$,(#7));
#9=PRODUCT_RELATED_PRODUCT_CATEGORY('part',$,(#8));
#10=PRODUCT_DEFINITION_FORMATION('',$,#8);
#11=PRODUCT_DEFINITION_CONTEXT('part definition',#5,'design');
#12=PRODUCT_DEFINITION('',$,#10,#11);
#18=(NAMED_UNIT(*)PLANE_ANGLE_UNIT()SI_UNIT($,.RADIAN.));
#19=DIMENSIONAL_EXPONENTS(0.0,0.0,0.0,0.0,0.0,0.0,0.0);
#20=PLANE_ANGLE_MEASURE_WITH_UNIT(PLANE_ANGLE_MEASURE(0.017453292500000),#18);
#24=(CONVERSION_BASED_UNIT('DEGREE',#20)NAMED_UNIT(#19)PLANE_ANGLE_UNIT());
#28=(NAMED_UNIT(*)SI_UNIT($,.STERADIAN.)SOLID_ANGLE_UNIT());
#32=(LENGTH_UNIT()NAMED_UNIT(*)SI_UNIT(.MILLI.,.METRE.));
#34=UNCERTAINTY_MEASURE_WITH_UNIT(LENGTH_MEASURE(0.010000000000000),#32,'DISTANCE_ACCURACY_VALUE','');
#36=(GEOMETRIC_REPRESENTATION_CONTEXT(3)GLOBAL_UNCERTAINTY_ASSIGNED_CONTEXT((#34))GLOBAL_UNIT_ASSIGNED_CONTEXT((#24,#28,#32))REPRESENTATION_CONTEXT('None','None'));
#37=AXIS2_PLACEMENT_3D('',#38,#39,#40);
#38=CARTESIAN_POINT('',(0.0,0.0,0.0));
#39=DIRECTION('',(0.0,0.0,1.0));
#40=DIRECTION('',(1.0,0.0,0.0));
#41=SHAPE_REPRESENTATION('',(#37),#36);
#42=PRODUCT_DEFINITION_SHAPE('','',#12);
#43=SHAPE_DEFINITION_REPRESENTATION(#42,#41);
#49=(NAMED_UNIT(*)PLANE_ANGLE_UNIT()SI_UNIT($,.RADIAN.));
#50=DIMENSIONAL_EXPONENTS(0.0,0.0,0.0,0.0,0.0,0.0,0.0);
#51=PLANE_ANGLE_MEASURE_WITH_UNIT(PLANE_ANGLE_MEASURE(0.017453292500000),#49);
#55=(CONVERSION_BASED_UNIT('DEGREE',#51)NAMED_UNIT(#50)PLANE_ANGLE_UNIT());
#59=(NAMED_UNIT(*)SI_UNIT($,.STERADIAN.)SOLID_ANGLE_UNIT());
#63=(LENGTH_UNIT()NAMED_UNIT(*)SI_UNIT(.MILLI.,.METRE.));
#65=UNCERTAINTY_MEASURE_WITH_UNIT(LENGTH_MEASURE(0.000001000000000),#63,'DISTANCE_ACCURACY_VALUE','');
#67=(GEOMETRIC_REPRESENTATION_CONTEXT(3)GLOBAL_UNCERTAINTY_ASSIGNED_CONTEXT((#65))GLOBAL_UNIT_ASSIGNED_CONTEXT((#55,#59,#63))REPRESENTATION_CONTEXT('','3D'));
#68=CARTESIAN_POINT('',(13.499999999999993,-19.0,4.0));
#69=CARTESIAN_POINT('',(13.499999999999993,-19.0,0.0));
#70=CARTESIAN_POINT('',(13.499999999999993,-24.500000000000000,4.0));
#71=CARTESIAN_POINT('',(13.499999999999993,-24.500000000000000,0.0));
#72=CARTESIAN_POINT('',(18.999999999999993,-24.500000000000000,4.0));
#73=CARTESIAN_POINT('',(18.999999999999993,-24.500000000000000,0.0));
#74=CARTESIAN_POINT('',(24.499999999999996,-24.500000000000000,4.0));
#75=CARTESIAN_POINT('',(24.499999999999996,-24.500000000000000,0.0));
#76=CARTESIAN_POINT('',(24.499999999999993,-19.0,4.0));
#77=CARTESIAN_POINT('',(24.499999999999993,-19.0,0.0));
#78=CARTESIAN_POINT('',(24.499999999999996,-13.500000000000000,4.0));
#79=CARTESIAN_POINT('',(24.499999999999996,-13.500000000000000,0.0));
#80=CARTESIAN_POINT('',(18.999999999999993,-13.500000000000000,4.0));
#81=CARTESIAN_POINT('',(18.999999999999993,-13.500000000000000,0.0));
#82=CARTESIAN_POINT('',(13.499999999999993,-13.500000000000000,4.0));
#83=CARTESIAN_POINT('',(13.499999999999993,-13.500000000000000,0.0));
#84=CARTESIAN_POINT('',(13.499999999999993,-19.0,4.0));
#85=CARTESIAN_POINT('',(13.499999999999993,-19.0,0.0));
#93=(BOUNDED_SURFACE()B_SPLINE_SURFACE(1,2,((#68,#70,#72,#74,#76,#78,#80,#82,#84),(#69,#71,#73,#75,#77,#79,#81,#83,#85)),.UNSPECIFIED.,.F.,.T.,.U.)B_SPLINE_SURFACE_WITH_KNOTS((2,2),(3,2,2,2,3),(-25.728397020085424,-25.001124292812698),(0.0,8.639379797371930,17.278759594743860,25.918139392115794,34.557519189487721),.UNSPECIFIED.)GEOMETRIC_REPRESENTATION_ITEM()RATIONAL_B_SPLINE_SURFACE(((1.0,0.707106781186548,1.0,0.707106781186548,1.0,0.707106781186548,1.0,0.707106781186548,1.0),(1.0,0.707106781186548,1.0,0.707106781186548,1.0,0.707106781186548,1.0,0.707106781186548,1.0)))REPRESENTATION_ITEM('')SURFACE());
#94=CARTESIAN_POINT('',(13.499999999999995,-19.0,0.0));
#95=VERTEX_POINT('',#94);
#96=CARTESIAN_POINT('',(18.999999999999993,-19.0,0.0));
#97=DIRECTION('',(0.0,0.0,1.0));
#98=DIRECTION('',(1.0,0.0,0.0));
#99=AXIS2_PLACEMENT_3D('',#96,#97,#98);
#100=CIRCLE('',#99,5.500000000000000);
#101=EDGE_CURVE('',#95,#95,#100,.T.);
#102=ORIENTED_EDGE('',*,*,#101,.F.);
#103=EDGE_LOOP('',(#102));
#104=FACE_OUTER_BOUND('',#103,.T.);
#105=CARTESIAN_POINT('',(24.499999999999993,-19.0,4.0));
#106=VERTEX_POINT('',#105);
#107=CARTESIAN_POINT('',(18.999999999999993,-19.0,4.000000000000004));
#108=DIRECTION('',(0.0,0.0,-1.0));
#109=DIRECTION('',(1.0,0.0,0.0));
#110=AXIS2_PLACEMENT_3D('',#107,#108,#109);
#111=CIRCLE('',#110,5.500000000000000);
#112=EDGE_CURVE('',#106,#106,#111,.T.);
#113=ORIENTED_EDGE('',*,*,#112,.F.);
#114=EDGE_LOOP('',(#113));
#115=FACE_BOUND('',#114,.T.);
#116=ADVANCED_FACE('',(#104,#115),#93,.F.);
#117=CARTESIAN_POINT('',(13.500000000000004,-59.0,4.0));
#118=CARTESIAN_POINT('',(13.500000000000004,-59.0,0.0));
#119=CARTESIAN_POINT('',(13.500000000000002,-64.500000000000000,4.0));
#120=CARTESIAN_POINT('',(13.500000000000002,-64.500000000000000,0.0));
#121=CARTESIAN_POINT('',(19.000000000000004,-64.500000000000000,4.0));
#122=CARTESIAN_POINT('',(19.000000000000004,-64.500000000000000,0.0));
#123=CARTESIAN_POINT('',(24.500000000000004,-64.500000000000000,4.0));
#124=CARTESIAN_POINT('',(24.500000000000004,-64.500000000000000,0.0));
#125=CARTESIAN_POINT('',(24.500000000000004,-59.0,4.0));
#126=CARTESIAN_POINT('',(24.500000000000004,-59.0,0.0));
#127=CARTESIAN_POINT('',(24.500000000000004,-53.499999999999993,4.0));
#128=CARTESIAN_POINT('',(24.500000000000004,-53.499999999999993,0.0));
#129=CARTESIAN_POINT('',(19.000000000000004,-53.500000000000000,4.0));
#130=CARTESIAN_POINT('',(19.000000000000004,-53.500000000000000,0.0));
#131=CARTESIAN_POINT('',(13.500000000000002,-53.499999999999993,4.0));
#132=CARTESIAN_POINT('',(13.500000000000002,-53.499999999999993,0.0));
#133=CARTESIAN_POINT('',(13.500000000000004,-59.0,4.0));
#134=CARTESIAN_POINT('',(13.500000000000004,-59.0,0.0));
#142=(BOUNDED_SURFACE()B_SPLINE_SURFACE(1,2,((#117,#119,#121,#123,#125,#127,#129,#131,#133),(#118,#120,#122,#124,#126,#128,#130,#132,#134)),.UNSPECIFIED.,.F.,.T.,.U.)B_SPLINE_SURFACE_WITH_KNOTS((2,2),(3,2,2,2,3),(-25.728397020085424,-25.001124292812698),(0.0,8.639379797371930,17.278759594743860,25.918139392115794,34.557519189487721),.UNSPECIFIED.)GEOMETRIC_REPRESENTATION_ITEM()RATIONAL_B_SPLINE_SURFACE(((1.0,0.707106781186548,1.0,0.707106781186548,1.0,0.707106781186548,1.0,0.707106781186548,1.0),(1.0,0.707106781186548,1.0,0.707106781186548,1.0,0.707106781186548,1.0,0.707106781186548,1.0)))REPRESENTATION_ITEM('')SURFACE());
#143=CARTESIAN_POINT('',(13.500000000000004,-59.0,0.0));
#144=VERTEX_POINT('',#143);
#145=CARTESIAN_POINT('',(19.000000000000004,-59.0,0.0));
#146=DIRECTION('',(0.0,0.0,1.0));
#147=DIRECTION('',(1.0,0.0,0.0));
#148=AXIS2_PLACEMENT_3D('',#145,#146,#147);
#149=CIRCLE('',#148,5.500000000000000);
#150=EDGE_CURVE('',#144,#144,#149,.T.);
#151=ORIENTED_EDGE('',*,*,#150,.F.);
#152=EDGE_LOOP('',(#151));
#153=FACE_OUTER_BOUND('',#152,.T.);
#154=CARTESIAN_POINT('',(24.500000000000000,-59.0,4.0));
#155=VERTEX_POINT('',#154);
#156=CARTESIAN_POINT('',(19.000000000000004,-59.0,4.000000000000004));
#157=DIRECTION('',(0.0,0.0,-1.0));
#158=DIRECTION('',(1.0,0.0,0.0));
#159=AXIS2_PLACEMENT_3D('',#156,#157,#158);
#160=CIRCLE('',#159,5.500000000000000);
#161=EDGE_CURVE('',#155,#155,#160,.T.);
#162=ORIENTED_EDGE('',*,*,#161,.F.);
#163=EDGE_LOOP('',(#162));
#164=FACE_BOUND('',#163,.T.);
#165=ADVANCED_FACE('',(#153,#164),#142,.F.);
#166=CARTESIAN_POINT('',(53.500000000000000,-19.000000000000007,4.0));
#167=CARTESIAN_POINT('',(53.500000000000000,-19.000000000000007,0.0));
#168=CARTESIAN_POINT('',(53.499999999999993,-24.500000000000004,4.0));
#169=CARTESIAN_POINT('',(53.499999999999993,-24.500000000000004,0.0));
#170=CARTESIAN_POINT('',(59.0,-24.500000000000007,4.0));
#171=CARTESIAN_POINT('',(59.0,-24.500000000000007,0.0));
#172=CARTESIAN_POINT('',(64.500000000000000,-24.500000000000004,4.0));
#173=CARTESIAN_POINT('',(64.500000000000000,-24.500000000000004,0.0));
#174=CARTESIAN_POINT('',(64.500000000000000,-19.000000000000007,4.0));
#175=CARTESIAN_POINT('',(64.500000000000000,-19.000000000000007,0.0));
#176=CARTESIAN_POINT('',(64.500000000000000,-13.500000000000007,4.0));
#177=CARTESIAN_POINT('',(64.500000000000000,-13.500000000000007,0.0));
#178=CARTESIAN_POINT('',(59.0,-13.500000000000007,4.0));
#179=CARTESIAN_POINT('',(59.0,-13.500000000000007,0.0));
#180=CARTESIAN_POINT('',(53.499999999999993,-13.500000000000007,4.0));
#181=CARTESIAN_POINT('',(53.499999999999993,-13.500000000000007,0.0));
#182=CARTESIAN_POINT('',(53.500000000000000,-19.000000000000007,4.0));
#183=CARTESIAN_POINT('',(53.500000000000000,-19.000000000000007,0.0));
#191=(BOUNDED_SURFACE()B_SPLINE_SURFACE(1,2,((#166,#168,#170,#172,#174,#176,#178,#180,#182),(#167,#169,#171,#173,#175,#177,#179,#181,#183)),.UNSPECIFIED.,.F.,.T.,.U.)B_SPLINE_SURFACE_WITH_KNOTS((2,2),(3,2,2,2,3),(-25.728397020085424,-25.001124292812698),(0.0,8.639379797371930,17.278759594743860,25.918139392115794,34.557519189487721),.UNSPECIFIED.)GEOMETRIC_REPRESENTATION_ITEM()RATIONAL_B_SPLINE_SURFACE(((1.0,0.707106781186548,1.0,0.707106781186548,1.0,0.707106781186548,1.0,0.707106781186548,1.0),(1.0,0.707106781186548,1.0,0.707106781186548,1.0,0.707106781186548,1.0,0.707106781186548,1.0)))REPRESENTATION_ITEM('')SURFACE());
#192=CARTESIAN_POINT('',(53.500000000000007,-19.000000000000007,0.0));
#193=VERTEX_POINT('',#192);
#194=CARTESIAN_POINT('',(59.0,-19.000000000000007,0.0));
#195=DIRECTION('',(0.0,0.0,1.0));
#196=DIRECTION('',(1.0,0.0,0.0));
#197=AXIS2_PLACEMENT_3D('',#194,#195,#196);
#198=CIRCLE('',#197,5.500000000000000);
#199=EDGE_CURVE('',#193,#193,#198,.T.);
#200=ORIENTED_EDGE('',*,*,#199,.F.);
#201=EDGE_LOOP('',(#200));
#202=FACE_OUTER_BOUND('',#201,.T.);
#203=CARTESIAN_POINT('',(64.500000000000000,-19.000000000000007,4.0));
#204=VERTEX_POINT('',#203);
#205=CARTESIAN_POINT('',(59.0,-19.000000000000007,4.000000000000004));
#206=DIRECTION('',(0.0,0.0,-1.0));
#207=DIRECTION('',(1.0,0.0,0.0));
#208=AXIS2_PLACEMENT_3D('',#205,#206,#207);
#209=CIRCLE('',#208,5.500000000000000);
#210=EDGE_CURVE('',#204,#204,#209,.T.);
#211=ORIENTED_EDGE('',*,*,#210,.F.);
#212=EDGE_LOOP('',(#211));
#213=FACE_BOUND('',#212,.T.);
#214=ADVANCED_FACE('',(#202,#213),#191,.F.);
#215=CARTESIAN_POINT('',(93.500000000000000,-18.999999999999996,4.0));
#216=CARTESIAN_POINT('',(93.500000000000000,-18.999999999999996,0.0));
#217=CARTESIAN_POINT('',(93.500000000000000,-24.499999999999996,4.0));
#218=CARTESIAN_POINT('',(93.500000000000000,-24.499999999999996,0.0));
#219=CARTESIAN_POINT('',(99.0,-24.499999999999996,4.0));
#220=CARTESIAN_POINT('',(99.0,-24.499999999999996,0.0));
#221=CARTESIAN_POINT('',(104.499999999999990,-24.499999999999996,4.0));
#222=CARTESIAN_POINT('',(104.499999999999990,-24.499999999999996,0.0));
#223=CARTESIAN_POINT('',(104.500000000000000,-18.999999999999996,4.0));
#224=CARTESIAN_POINT('',(104.500000000000000,-18.999999999999996,0.0));
#225=CARTESIAN_POINT('',(104.499999999999990,-13.499999999999998,4.0));
#226=CARTESIAN_POINT('',(104.499999999999990,-13.499999999999998,0.0));
#227=CARTESIAN_POINT('',(99.0,-13.499999999999996,4.0));
#228=CARTESIAN_POINT('',(99.0,-13.499999999999996,0.0));
#229=CARTESIAN_POINT('',(93.500000000000000,-13.499999999999998,4.0));
#230=CARTESIAN_POINT('',(93.500000000000000,-13.499999999999998,0.0));
#231=CARTESIAN_POINT('',(93.500000000000000,-18.999999999999996,4.0));
#232=CARTESIAN_POINT('',(93.500000000000000,-18.999999999999996,0.0));
#240=(BOUNDED_SURFACE()B_SPLINE_SURFACE(1,2,((#215,#217,#219,#221,#223,#225,#227,#229,#231),(#216,#218,#220,#222,#224,#226,#228,#230,#232)),.UNSPECIFIED.,.F.,.T.,.U.)B_SPLINE_SURFACE_WITH_KNOTS((2,2),(3,2,2,2,3),(-25.728397020085424,-25.001124292812698),(0.0,8.639379797371930,17.278759594743860,25.918139392115794,34.557519189487721),.UNSPECIFIED.)GEOMETRIC_REPRESENTATION_ITEM()RATIONAL_B_SPLINE_SURFACE(((1.0,0.707106781186548,1.0,0.707106781186548,1.0,0.707106781186548,1.0,0.707106781186548,1.0),(1.0,0.707106781186548,1.0,0.707106781186548,1.0,0.707106781186548,1.0,0.707106781186548,1.0)))REPRESENTATION_ITEM('')SURFACE());
#241=CARTESIAN_POINT('',(93.500000000000000,-18.999999999999996,0.0));
#242=VERTEX_POINT('',#241);
#243=CARTESIAN_POINT('',(99.0,-18.999999999999996,0.0));
#244=DIRECTION('',(0.0,0.0,1.0));
#245=DIRECTION('',(1.0,0.0,0.0));
#246=AXIS2_PLACEMENT_3D('',#243,#244,#245);
#247=CIRCLE('',#246,5.500000000000000);
#248=EDGE_CURVE('',#242,#242,#247,.T.);
#249=ORIENTED_EDGE('',*,*,#248,.F.);
#250=EDGE_LOOP('',(#249));
#251=FACE_OUTER_BOUND('',#250,.T.);
#252=CARTESIAN_POINT('',(104.500000000000010,-18.999999999999996,4.0));
#253=VERTEX_POINT('',#252);
#254=CARTESIAN_POINT('',(99.0,-18.999999999999996,4.000000000000004));
#255=DIRECTION('',(0.0,0.0,-1.0));
#256=DIRECTION('',(1.0,0.0,0.0));
#257=AXIS2_PLACEMENT_3D('',#254,#255,#256);
#258=CIRCLE('',#257,5.500000000000000);
#259=EDGE_CURVE('',#253,#253,#258,.T.);
#260=ORIENTED_EDGE('',*,*,#259,.F.);
#261=EDGE_LOOP('',(#260));
#262=FACE_BOUND('',#261,.T.);
#263=ADVANCED_FACE('',(#251,#262),#240,.F.);
#264=CARTESIAN_POINT('',(0.0,0.0,0.0));
#265=DIRECTION('',(0.0,1.0,0.0));
#266=DIRECTION('',(0.0,0.0,1.0));
#267=AXIS2_PLACEMENT_3D('',#264,#265,#266);
#268=PLANE('',#267);
#269=CARTESIAN_POINT('',(0.0,0.0,4.0));
#270=VERTEX_POINT('',#269);
#271=CARTESIAN_POINT('',(118.0,7.225416E-015,4.0));
#272=VERTEX_POINT('',#271);
#273=CARTESIAN_POINT('',(0.0,0.0,4.0));
#274=DIRECTION('',(1.0,0.0,0.0));
#275=VECTOR('',#274,118.0);
#276=LINE('',#273,#275);
#277=EDGE_CURVE('',#270,#272,#276,.T.);
#278=ORIENTED_EDGE('',*,*,#277,.T.);
#279=CARTESIAN_POINT('',(118.0,7.225416E-015,0.0));
#280=VERTEX_POINT('',#279);
#281=CARTESIAN_POINT('',(118.0,7.225416E-015,0.0));
#282=DIRECTION('',(0.0,0.0,1.0));
#283=VECTOR('',#282,4.0);
#284=LINE('',#281,#283);
#285=EDGE_CURVE('',#280,#272,#284,.T.);
#286=ORIENTED_EDGE('',*,*,#285,.F.);
#287=CARTESIAN_POINT('',(0.0,0.0,0.0));
#288=VERTEX_POINT('',#287);
#289=CARTESIAN_POINT('',(118.0,7.225416E-015,0.0));
#290=DIRECTION('',(-1.0,0.0,0.0));
#291=VECTOR('',#290,118.0);
#292=LINE('',#289,#291);
#293=EDGE_CURVE('',#280,#288,#292,.T.);
#294=ORIENTED_EDGE('',*,*,#293,.T.);
#295=CARTESIAN_POINT('',(0.0,0.0,0.0));
#296=DIRECTION('',(0.0,0.0,1.0));
#297=VECTOR('',#296,4.0);
#298=LINE('',#295,#297);
#299=EDGE_CURVE('',#288,#270,#298,.T.);
#300=ORIENTED_EDGE('',*,*,#299,.T.);
#301=EDGE_LOOP('',(#278,#286,#294,#300));
#302=FACE_OUTER_BOUND('',#301,.T.);
#303=ADVANCED_FACE('',(#302),#268,.T.);
#304=CARTESIAN_POINT('',(118.0,7.225416E-015,0.0));
#305=DIRECTION('',(1.0,0.0,0.0));
#306=DIRECTION('',(0.0,0.0,-1.0));
#307=AXIS2_PLACEMENT_3D('',#304,#305,#306);
#308=PLANE('',#307);
#309=CARTESIAN_POINT('',(118.0,-37.999999999999993,4.0));
#310=VERTEX_POINT('',#309);
#311=CARTESIAN_POINT('',(118.0,7.105427E-015,4.0));
#312=DIRECTION('',(0.0,-1.0,0.0));
#313=VECTOR('',#312,38.0);
#314=LINE('',#311,#313);
#315=EDGE_CURVE('',#272,#310,#314,.T.);
#316=ORIENTED_EDGE('',*,*,#315,.T.);
#317=CARTESIAN_POINT('',(118.0,-37.999999999999993,0.0));
#318=VERTEX_POINT('',#317);
#319=CARTESIAN_POINT('',(118.0,-37.999999999999993,0.0));
#320=DIRECTION('',(0.0,0.0,1.0));
#321=VECTOR('',#320,4.0);
#322=LINE('',#319,#321);
#323=EDGE_CURVE('',#318,#310,#322,.T.);
#324=ORIENTED_EDGE('',*,*,#323,.F.);
#325=CARTESIAN_POINT('',(118.0,-37.999999999999993,0.0));
#326=DIRECTION('',(0.0,1.0,0.0));
#327=VECTOR('',#326,38.0);
#328=LINE('',#325,#327);
#329=EDGE_CURVE('',#318,#280,#328,.T.);
#330=ORIENTED_EDGE('',*,*,#329,.T.);
#331=ORIENTED_EDGE('',*,*,#285,.T.);
#332=EDGE_LOOP('',(#316,#324,#330,#331));
#333=FACE_OUTER_BOUND('',#332,.T.);
#334=ADVANCED_FACE('',(#333),#308,.T.);
#335=CARTESIAN_POINT('',(118.0,-37.999999999999993,0.0));
#336=DIRECTION('',(0.0,-1.0,0.0));
#337=DIRECTION('',(0.0,0.0,-1.0));
#338=AXIS2_PLACEMENT_3D('',#335,#336,#337);
#339=PLANE('',#338);
#340=CARTESIAN_POINT('',(38.0,-38.000000000000014,4.0));
#341=VERTEX_POINT('',#340);
#342=CARTESIAN_POINT('',(118.0,-38.0,4.0));
#343=DIRECTION('',(-1.0,0.0,0.0));
#344=VECTOR('',#343,80.0);
#345=LINE('',#342,#344);
#346=EDGE_CURVE('',#310,#341,#345,.T.);
#347=ORIENTED_EDGE('',*,*,#346,.T.);
#348=CARTESIAN_POINT('',(38.0,-38.000000000000014,0.0));
#349=VERTEX_POINT('',#348);
#350=CARTESIAN_POINT('',(38.0,-38.000000000000014,0.0));
#351=DIRECTION('',(0.0,0.0,1.0));
#352=VECTOR('',#351,4.0);
#353=LINE('',#350,#352);
#354=EDGE_CURVE('',#349,#341,#353,.T.);
#355=ORIENTED_EDGE('',*,*,#354,.F.);
#356=CARTESIAN_POINT('',(38.000000000000007,-38.000000000000014,0.0));
#357=DIRECTION('',(1.0,0.0,0.0));
#358=VECTOR('',#357,80.0);
#359=LINE('',#356,#358);
#360=EDGE_CURVE('',#349,#318,#359,.T.);
#361=ORIENTED_EDGE('',*,*,#360,.T.);
#362=ORIENTED_EDGE('',*,*,#323,.T.);
#363=EDGE_LOOP('',(#347,#355,#361,#362));
#364=FACE_OUTER_BOUND('',#363,.T.);
#365=ADVANCED_FACE('',(#364),#339,.T.);
#366=CARTESIAN_POINT('',(38.0,-38.000000000000014,0.0));
#367=DIRECTION('',(1.0,0.0,0.0));
#368=DIRECTION('',(0.0,0.0,-1.0));
#369=AXIS2_PLACEMENT_3D('',#366,#367,#368);
#370=PLANE('',#369);
#371=CARTESIAN_POINT('',(38.0,-78.0,4.0));
#372=VERTEX_POINT('',#371);
#373=CARTESIAN_POINT('',(37.999999999999993,-38.000000000000014,4.0));
#374=DIRECTION('',(0.0,-1.0,0.0));
#375=VECTOR('',#374,39.999999999999986);
#376=LINE('',#373,#375);
#377=EDGE_CURVE('',#341,#372,#376,.T.);
#378=ORIENTED_EDGE('',*,*,#377,.T.);
#379=CARTESIAN_POINT('',(38.0,-78.0,0.0));
#380=VERTEX_POINT('',#379);
#381=CARTESIAN_POINT('',(38.0,-78.0,0.0));
#382=DIRECTION('',(0.0,0.0,1.0));
#383=VECTOR('',#382,4.0);
#384=LINE('',#381,#383);
#385=EDGE_CURVE('',#380,#372,#384,.T.);
#386=ORIENTED_EDGE('',*,*,#385,.F.);
#387=CARTESIAN_POINT('',(38.0,-78.0,0.0));
#388=DIRECTION('',(0.0,1.0,0.0));
#389=VECTOR('',#388,39.999999999999986);
#390=LINE('',#387,#389);
#391=EDGE_CURVE('',#380,#349,#390,.T.);
#392=ORIENTED_EDGE('',*,*,#391,.T.);
#393=ORIENTED_EDGE('',*,*,#354,.T.);
#394=EDGE_LOOP('',(#378,#386,#392,#393));
#395=FACE_OUTER_BOUND('',#394,.T.);
#396=ADVANCED_FACE('',(#395),#370,.T.);
#397=CARTESIAN_POINT('',(38.0,-78.0,0.0));
#398=DIRECTION('',(0.0,-1.0,0.0));
#399=DIRECTION('',(0.0,0.0,-1.0));
#400=AXIS2_PLACEMENT_3D('',#397,#398,#399);
#401=PLANE('',#400);
#402=CARTESIAN_POINT('',(0.0,-78.0,4.0));
#403=VERTEX_POINT('',#402);
#404=CARTESIAN_POINT('',(38.0,-77.999999999999986,4.0));
#405=DIRECTION('',(-1.0,0.0,0.0));
#406=VECTOR('',#405,38.0);
#407=LINE('',#404,#406);
#408=EDGE_CURVE('',#372,#403,#407,.T.);
#409=ORIENTED_EDGE('',*,*,#408,.T.);
#410=CARTESIAN_POINT('',(0.0,-78.0,0.0));
#411=VERTEX_POINT('',#410);
#412=CARTESIAN_POINT('',(0.0,-78.0,0.0));
#413=DIRECTION('',(0.0,0.0,1.0));
#414=VECTOR('',#413,4.0);
#415=LINE('',#412,#414);
#416=EDGE_CURVE('',#411,#403,#415,.T.);
#417=ORIENTED_EDGE('',*,*,#416,.F.);
#418=CARTESIAN_POINT('',(0.0,-78.0,0.0));
#419=DIRECTION('',(1.0,0.0,0.0));
#420=VECTOR('',#419,38.0);
#421=LINE('',#418,#420);
#422=EDGE_CURVE('',#411,#380,#421,.T.);
#423=ORIENTED_EDGE('',*,*,#422,.T.);
#424=ORIENTED_EDGE('',*,*,#385,.T.);
#425=EDGE_LOOP('',(#409,#417,#423,#424));
#426=FACE_OUTER_BOUND('',#425,.T.);
#427=ADVANCED_FACE('',(#426),#401,.T.);
#428=CARTESIAN_POINT('',(0.0,-78.0,0.0));
#429=DIRECTION('',(-1.0,0.0,0.0));
#430=DIRECTION('',(0.0,0.0,1.0));
#431=AXIS2_PLACEMENT_3D('',#428,#429,#430);
#432=PLANE('',#431);
#433=CARTESIAN_POINT('',(0.0,-78.0,4.0));
#434=DIRECTION('',(0.0,1.0,0.0));
#435=VECTOR('',#434,78.0);
#436=LINE('',#433,#435);
#437=EDGE_CURVE('',#403,#270,#436,.T.);
#438=ORIENTED_EDGE('',*,*,#437,.T.);
#439=ORIENTED_EDGE('',*,*,#299,.F.);
#440=CARTESIAN_POINT('',(0.0,0.0,0.0));
#441=DIRECTION('',(0.0,-1.0,0.0));
#442=VECTOR('',#441,78.0);
#443=LINE('',#440,#442);
#444=EDGE_CURVE('',#288,#411,#443,.T.);
#445=ORIENTED_EDGE('',*,*,#444,.T.);
#446=ORIENTED_EDGE('',*,*,#416,.T.);
#447=EDGE_LOOP('',(#438,#439,#445,#446));
#448=FACE_OUTER_BOUND('',#447,.T.);
#449=ADVANCED_FACE('',(#448),#432,.T.);
#450=CARTESIAN_POINT('',(50.836734693877553,-30.836734693877549,0.0));
#451=DIRECTION('',(0.0,0.0,1.0));
#452=DIRECTION('',(1.0,0.0,0.0));
#453=AXIS2_PLACEMENT_3D('',#450,#451,#452);
#454=PLANE('',#453);
#455=ORIENTED_EDGE('',*,*,#444,.F.);
#456=ORIENTED_EDGE('',*,*,#293,.F.);
#457=ORIENTED_EDGE('',*,*,#329,.F.);
#458=ORIENTED_EDGE('',*,*,#360,.F.);
#459=ORIENTED_EDGE('',*,*,#391,.F.);
#460=ORIENTED_EDGE('',*,*,#422,.F.);
#461=EDGE_LOOP('',(#455,#456,#457,#458,#459,#460));
#462=FACE_OUTER_BOUND('',#461,.T.);
#463=ORIENTED_EDGE('',*,*,#101,.T.);
#464=EDGE_LOOP('',(#463));
#465=FACE_BOUND('',#464,.T.);
#466=ORIENTED_EDGE('',*,*,#150,.T.);
#467=EDGE_LOOP('',(#466));
#468=FACE_BOUND('',#467,.T.);
#469=ORIENTED_EDGE('',*,*,#199,.T.);
#470=EDGE_LOOP('',(#469));
#471=FACE_BOUND('',#470,.T.);
#472=ORIENTED_EDGE('',*,*,#248,.T.);
#473=EDGE_LOOP('',(#472));
#474=FACE_BOUND('',#473,.T.);
#475=ADVANCED_FACE('',(#462,#465,#468,#471,#474),#454,.F.);
#476=CARTESIAN_POINT('',(50.836734693877546,-30.836734693877549,4.0));
#477=DIRECTION('',(0.0,0.0,1.0));
#478=DIRECTION('',(1.0,0.0,0.0));
#479=AXIS2_PLACEMENT_3D('',#476,#477,#478);
#480=PLANE('',#479);
#481=ORIENTED_EDGE('',*,*,#277,.F.);
#482=ORIENTED_EDGE('',*,*,#437,.F.);
#483=ORIENTED_EDGE('',*,*,#408,.F.);
#484=ORIENTED_EDGE('',*,*,#377,.F.);
#485=ORIENTED_EDGE('',*,*,#346,.F.);
#486=ORIENTED_EDGE('',*,*,#315,.F.);
#487=EDGE_LOOP('',(#481,#482,#483,#484,#485,#486));
#488=FACE_OUTER_BOUND('',#487,.T.);
#489=ORIENTED_EDGE('',*,*,#112,.T.);
#490=EDGE_LOOP('',(#489));
#491=FACE_BOUND('',#490,.T.);
#492=ORIENTED_EDGE('',*,*,#161,.T.);
#493=EDGE_LOOP('',(#492));
#494=FACE_BOUND('',#493,.T.);
#495=ORIENTED_EDGE('',*,*,#210,.T.);
#496=EDGE_LOOP('',(#495));
#497=FACE_BOUND('',#496,.T.);
#498=ORIENTED_EDGE('',*,*,#259,.T.);
#499=EDGE_LOOP('',(#498));
#500=FACE_BOUND('',#499,.T.);
#501=ADVANCED_FACE('',(#488,#491,#494,#497,#500),#480,.T.);
#502=CLOSED_SHELL('',(#116,#165,#214,#263,#303,#334,#365,#396,#427,#449,#475,#501));
#503=MANIFOLD_SOLID_BREP('Volumenk\S\vrper1',#502);
#504=COLOUR_RGB('Standard',0.752941012382507,0.752941012382507,0.752941012382507);
#505=FILL_AREA_STYLE_COLOUR('Standard',#504);
#506=FILL_AREA_STYLE('Standard',(#505));
#507=SURFACE_STYLE_FILL_AREA(#506);
#508=SURFACE_SIDE_STYLE('Standard',(#507));
#509=SURFACE_STYLE_USAGE(.BOTH.,#508);
#510=PRESENTATION_STYLE_ASSIGNMENT((#509));
#511=STYLED_ITEM('',(#510),#503);
#512=MECHANICAL_DESIGN_GEOMETRIC_PRESENTATION_REPRESENTATION('',(#511),#36);
#513=ADVANCED_BREP_SHAPE_REPRESENTATION('ABSR',(#503),#36);
#514=SHAPE_REPRESENTATION_RELATIONSHIP('SRR','None',#513,#41);
ENDSEC;
END-ISO-10303-21;
