ISO-10303-21;
HEADER;
/* Generated by software containing ST-Developer
 * from STEP Tools, Inc. (www.steptools.com) 
 */

FILE_DESCRIPTION(
/* description */ (''),
/* implementation_level */ '2;1');

FILE_NAME(
/* name */ 
'Q:\\Ric010\\FF7\\FIPlastiCAD\\FIP\\Lavoro\\PVC Fittings\\PVC Fittings
 STEP\\XIV\\XIV025.ipt.stp',
/* time_stamp */ '2013-10-01T14:57:12+02:00',
/* author */ ('bfaro'),
/* organization */ (''),
/* preprocessor_version */ 'ST-DEVELOPER v15.2',
/* originating_system */ 'Autodesk Inventor 2014',
/* authorisation */ '');

FILE_SCHEMA (('AUTOMOTIVE_DESIGN { 1 0 10303 214 3 1 1 }'));
ENDSEC;

DATA;
#10=SHAPE_REPRESENTATION_RELATIONSHIP('SRR','None',#461,#11);
#11=ADVANCED_BREP_SHAPE_REPRESENTATION($,(#250),#452);
#12=STYLED_ITEM($,(#469),#250);
#13=PLANE($,#288);
#14=PLANE($,#289);
#15=PLANE($,#290);
#16=PLANE($,#291);
#17=PLANE($,#292);
#18=PLANE($,#293);
#19=PLANE($,#294);
#20=PLANE($,#295);
#21=FACE_BOUND($,#78,.T.);
#22=FACE_BOUND($,#80,.T.);
#23=FACE_BOUND($,#82,.T.);
#24=FACE_BOUND($,#84,.T.);
#25=FACE_BOUND($,#86,.T.);
#26=FACE_BOUND($,#88,.T.);
#27=FACE_BOUND($,#90,.T.);
#28=FACE_BOUND($,#92,.T.);
#29=FACE_BOUND($,#94,.T.);
#30=FACE_BOUND($,#96,.T.);
#31=FACE_BOUND($,#98,.T.);
#32=FACE_BOUND($,#100,.T.);
#33=FACE_BOUND($,#101,.T.);
#34=FACE_BOUND($,#102,.T.);
#35=FACE_BOUND($,#103,.T.);
#36=FACE_BOUND($,#104,.T.);
#37=FACE_BOUND($,#105,.T.);
#38=FACE_BOUND($,#106,.T.);
#39=FACE_BOUND($,#107,.T.);
#40=FACE_BOUND($,#108,.T.);
#41=FACE_BOUND($,#110,.T.);
#42=FACE_BOUND($,#112,.T.);
#43=FACE_BOUND($,#114,.T.);
#44=FACE_BOUND($,#116,.T.);
#45=CIRCLE($,#255,12.);
#46=CIRCLE($,#259,12.);
#47=CIRCLE($,#261,12.);
#48=CIRCLE($,#263,12.);
#49=CIRCLE($,#265,12.5);
#50=CIRCLE($,#266,12.5);
#51=CIRCLE($,#268,12.5);
#52=CIRCLE($,#269,12.5);
#53=CIRCLE($,#271,17.5);
#54=CIRCLE($,#277,17.5);
#55=CIRCLE($,#279,12.5);
#56=CIRCLE($,#280,12.5);
#57=CIRCLE($,#282,12.5);
#58=CIRCLE($,#283,12.5);
#59=CIRCLE($,#285,17.5);
#60=CIRCLE($,#287,17.5);
#61=FACE_OUTER_BOUND($,#77,.T.);
#62=FACE_OUTER_BOUND($,#79,.T.);
#63=FACE_OUTER_BOUND($,#81,.T.);
#64=FACE_OUTER_BOUND($,#83,.T.);
#65=FACE_OUTER_BOUND($,#85,.T.);
#66=FACE_OUTER_BOUND($,#87,.T.);
#67=FACE_OUTER_BOUND($,#89,.T.);
#68=FACE_OUTER_BOUND($,#91,.T.);
#69=FACE_OUTER_BOUND($,#93,.T.);
#70=FACE_OUTER_BOUND($,#95,.T.);
#71=FACE_OUTER_BOUND($,#97,.T.);
#72=FACE_OUTER_BOUND($,#99,.T.);
#73=FACE_OUTER_BOUND($,#109,.T.);
#74=FACE_OUTER_BOUND($,#111,.T.);
#75=FACE_OUTER_BOUND($,#113,.T.);
#76=FACE_OUTER_BOUND($,#115,.T.);
#77=EDGE_LOOP($,(#169,#170));
#78=EDGE_LOOP($,(#171));
#79=EDGE_LOOP($,(#172,#173));
#80=EDGE_LOOP($,(#174));
#81=EDGE_LOOP($,(#175));
#82=EDGE_LOOP($,(#176,#177));
#83=EDGE_LOOP($,(#178,#179));
#84=EDGE_LOOP($,(#180));
#85=EDGE_LOOP($,(#181));
#86=EDGE_LOOP($,(#182));
#87=EDGE_LOOP($,(#183));
#88=EDGE_LOOP($,(#184));
#89=EDGE_LOOP($,(#185));
#90=EDGE_LOOP($,(#186,#187));
#91=EDGE_LOOP($,(#188,#189));
#92=EDGE_LOOP($,(#190));
#93=EDGE_LOOP($,(#191));
#94=EDGE_LOOP($,(#192));
#95=EDGE_LOOP($,(#193));
#96=EDGE_LOOP($,(#194));
#97=EDGE_LOOP($,(#195));
#98=EDGE_LOOP($,(#196,#197));
#99=EDGE_LOOP($,(#198,#199));
#100=EDGE_LOOP($,(#200));
#101=EDGE_LOOP($,(#201));
#102=EDGE_LOOP($,(#202));
#103=EDGE_LOOP($,(#203));
#104=EDGE_LOOP($,(#204));
#105=EDGE_LOOP($,(#205));
#106=EDGE_LOOP($,(#206));
#107=EDGE_LOOP($,(#207));
#108=EDGE_LOOP($,(#208));
#109=EDGE_LOOP($,(#209));
#110=EDGE_LOOP($,(#210));
#111=EDGE_LOOP($,(#211));
#112=EDGE_LOOP($,(#212));
#113=EDGE_LOOP($,(#213));
#114=EDGE_LOOP($,(#214));
#115=EDGE_LOOP($,(#215));
#116=EDGE_LOOP($,(#216));
#117=ELLIPSE($,#253,16.9705627484772,12.);
#118=ELLIPSE($,#254,16.9705627484772,12.);
#119=ELLIPSE($,#257,16.9705627484772,12.);
#120=ELLIPSE($,#258,16.9705627484772,12.);
#121=ELLIPSE($,#272,24.7487373415292,17.5);
#122=ELLIPSE($,#273,24.7487373415292,17.5);
#123=ELLIPSE($,#275,24.7487373415292,17.5);
#124=ELLIPSE($,#276,24.7487373415292,17.5);
#125=VERTEX_POINT($,#388);
#126=VERTEX_POINT($,#389);
#127=VERTEX_POINT($,#392);
#128=VERTEX_POINT($,#397);
#129=VERTEX_POINT($,#400);
#130=VERTEX_POINT($,#403);
#131=VERTEX_POINT($,#406);
#132=VERTEX_POINT($,#408);
#133=VERTEX_POINT($,#411);
#134=VERTEX_POINT($,#413);
#135=VERTEX_POINT($,#416);
#136=VERTEX_POINT($,#418);
#137=VERTEX_POINT($,#419);
#138=VERTEX_POINT($,#425);
#139=VERTEX_POINT($,#428);
#140=VERTEX_POINT($,#430);
#141=VERTEX_POINT($,#433);
#142=VERTEX_POINT($,#435);
#143=VERTEX_POINT($,#438);
#144=VERTEX_POINT($,#441);
#145=EDGE_CURVE($,#125,#126,#117,.T.);
#146=EDGE_CURVE($,#126,#125,#118,.T.);
#147=EDGE_CURVE($,#127,#127,#45,.T.);
#148=EDGE_CURVE($,#126,#125,#119,.T.);
#149=EDGE_CURVE($,#125,#126,#120,.T.);
#150=EDGE_CURVE($,#128,#128,#46,.T.);
#151=EDGE_CURVE($,#129,#129,#47,.T.);
#152=EDGE_CURVE($,#130,#130,#48,.T.);
#153=EDGE_CURVE($,#131,#131,#49,.T.);
#154=EDGE_CURVE($,#132,#132,#50,.T.);
#155=EDGE_CURVE($,#133,#133,#51,.T.);
#156=EDGE_CURVE($,#134,#134,#52,.T.);
#157=EDGE_CURVE($,#135,#135,#53,.T.);
#158=EDGE_CURVE($,#136,#137,#121,.T.);
#159=EDGE_CURVE($,#137,#136,#122,.T.);
#160=EDGE_CURVE($,#137,#136,#123,.T.);
#161=EDGE_CURVE($,#136,#137,#124,.T.);
#162=EDGE_CURVE($,#138,#138,#54,.T.);
#163=EDGE_CURVE($,#139,#139,#55,.T.);
#164=EDGE_CURVE($,#140,#140,#56,.T.);
#165=EDGE_CURVE($,#141,#141,#57,.T.);
#166=EDGE_CURVE($,#142,#142,#58,.T.);
#167=EDGE_CURVE($,#143,#143,#59,.T.);
#168=EDGE_CURVE($,#144,#144,#60,.T.);
#169=ORIENTED_EDGE($,*,*,#145,.F.);
#170=ORIENTED_EDGE($,*,*,#146,.F.);
#171=ORIENTED_EDGE($,*,*,#147,.F.);
#172=ORIENTED_EDGE($,*,*,#148,.F.);
#173=ORIENTED_EDGE($,*,*,#149,.F.);
#174=ORIENTED_EDGE($,*,*,#150,.F.);
#175=ORIENTED_EDGE($,*,*,#151,.F.);
#176=ORIENTED_EDGE($,*,*,#149,.T.);
#177=ORIENTED_EDGE($,*,*,#146,.T.);
#178=ORIENTED_EDGE($,*,*,#148,.T.);
#179=ORIENTED_EDGE($,*,*,#145,.T.);
#180=ORIENTED_EDGE($,*,*,#152,.F.);
#181=ORIENTED_EDGE($,*,*,#153,.F.);
#182=ORIENTED_EDGE($,*,*,#154,.T.);
#183=ORIENTED_EDGE($,*,*,#155,.F.);
#184=ORIENTED_EDGE($,*,*,#156,.F.);
#185=ORIENTED_EDGE($,*,*,#157,.F.);
#186=ORIENTED_EDGE($,*,*,#158,.F.);
#187=ORIENTED_EDGE($,*,*,#159,.F.);
#188=ORIENTED_EDGE($,*,*,#160,.F.);
#189=ORIENTED_EDGE($,*,*,#161,.F.);
#190=ORIENTED_EDGE($,*,*,#162,.T.);
#191=ORIENTED_EDGE($,*,*,#163,.F.);
#192=ORIENTED_EDGE($,*,*,#164,.F.);
#193=ORIENTED_EDGE($,*,*,#165,.F.);
#194=ORIENTED_EDGE($,*,*,#166,.T.);
#195=ORIENTED_EDGE($,*,*,#167,.F.);
#196=ORIENTED_EDGE($,*,*,#159,.T.);
#197=ORIENTED_EDGE($,*,*,#161,.T.);
#198=ORIENTED_EDGE($,*,*,#158,.T.);
#199=ORIENTED_EDGE($,*,*,#160,.T.);
#200=ORIENTED_EDGE($,*,*,#168,.T.);
#201=ORIENTED_EDGE($,*,*,#151,.T.);
#202=ORIENTED_EDGE($,*,*,#154,.F.);
#203=ORIENTED_EDGE($,*,*,#152,.T.);
#204=ORIENTED_EDGE($,*,*,#155,.T.);
#205=ORIENTED_EDGE($,*,*,#147,.T.);
#206=ORIENTED_EDGE($,*,*,#163,.T.);
#207=ORIENTED_EDGE($,*,*,#150,.T.);
#208=ORIENTED_EDGE($,*,*,#166,.F.);
#209=ORIENTED_EDGE($,*,*,#162,.F.);
#210=ORIENTED_EDGE($,*,*,#165,.T.);
#211=ORIENTED_EDGE($,*,*,#157,.T.);
#212=ORIENTED_EDGE($,*,*,#164,.T.);
#213=ORIENTED_EDGE($,*,*,#168,.F.);
#214=ORIENTED_EDGE($,*,*,#153,.T.);
#215=ORIENTED_EDGE($,*,*,#167,.T.);
#216=ORIENTED_EDGE($,*,*,#156,.T.);
#217=CYLINDRICAL_SURFACE($,#252,12.);
#218=CYLINDRICAL_SURFACE($,#256,12.);
#219=CYLINDRICAL_SURFACE($,#260,12.);
#220=CYLINDRICAL_SURFACE($,#262,12.);
#221=CYLINDRICAL_SURFACE($,#264,12.5);
#222=CYLINDRICAL_SURFACE($,#267,12.5);
#223=CYLINDRICAL_SURFACE($,#270,17.5);
#224=CYLINDRICAL_SURFACE($,#274,17.5);
#225=CYLINDRICAL_SURFACE($,#278,12.5);
#226=CYLINDRICAL_SURFACE($,#281,12.5);
#227=CYLINDRICAL_SURFACE($,#284,17.5);
#228=CYLINDRICAL_SURFACE($,#286,17.5);
#229=ADVANCED_FACE($,(#61,#21),#217,.F.);
#230=ADVANCED_FACE($,(#62,#22),#218,.F.);
#231=ADVANCED_FACE($,(#63,#23),#219,.F.);
#232=ADVANCED_FACE($,(#64,#24),#220,.F.);
#233=ADVANCED_FACE($,(#65,#25),#221,.F.);
#234=ADVANCED_FACE($,(#66,#26),#222,.F.);
#235=ADVANCED_FACE($,(#67,#27),#223,.T.);
#236=ADVANCED_FACE($,(#68,#28),#224,.T.);
#237=ADVANCED_FACE($,(#69,#29),#225,.F.);
#238=ADVANCED_FACE($,(#70,#30),#226,.F.);
#239=ADVANCED_FACE($,(#71,#31),#227,.T.);
#240=ADVANCED_FACE($,(#72,#32),#228,.T.);
#241=ADVANCED_FACE($,(#33,#34),#13,.T.);
#242=ADVANCED_FACE($,(#35,#36),#14,.T.);
#243=ADVANCED_FACE($,(#37,#38),#15,.T.);
#244=ADVANCED_FACE($,(#39,#40),#16,.T.);
#245=ADVANCED_FACE($,(#73,#41),#17,.T.);
#246=ADVANCED_FACE($,(#74,#42),#18,.T.);
#247=ADVANCED_FACE($,(#75,#43),#19,.T.);
#248=ADVANCED_FACE($,(#76,#44),#20,.T.);
#249=CLOSED_SHELL($,(#229,#230,#231,#232,#233,#234,#235,#236,#237,#238,
#239,#240,#241,#242,#243,#244,#245,#246,#247,#248));
#250=MANIFOLD_SOLID_BREP('Solido1',#249);
#251=AXIS2_PLACEMENT_3D('placement',#386,#296,#297);
#252=AXIS2_PLACEMENT_3D($,#387,#298,#299);
#253=AXIS2_PLACEMENT_3D($,#390,#300,#301);
#254=AXIS2_PLACEMENT_3D($,#391,#302,#303);
#255=AXIS2_PLACEMENT_3D($,#393,#304,#305);
#256=AXIS2_PLACEMENT_3D($,#394,#306,#307);
#257=AXIS2_PLACEMENT_3D($,#395,#308,#309);
#258=AXIS2_PLACEMENT_3D($,#396,#310,#311);
#259=AXIS2_PLACEMENT_3D($,#398,#312,#313);
#260=AXIS2_PLACEMENT_3D($,#399,#314,#315);
#261=AXIS2_PLACEMENT_3D($,#401,#316,#317);
#262=AXIS2_PLACEMENT_3D($,#402,#318,#319);
#263=AXIS2_PLACEMENT_3D($,#404,#320,#321);
#264=AXIS2_PLACEMENT_3D($,#405,#322,#323);
#265=AXIS2_PLACEMENT_3D($,#407,#324,#325);
#266=AXIS2_PLACEMENT_3D($,#409,#326,#327);
#267=AXIS2_PLACEMENT_3D($,#410,#328,#329);
#268=AXIS2_PLACEMENT_3D($,#412,#330,#331);
#269=AXIS2_PLACEMENT_3D($,#414,#332,#333);
#270=AXIS2_PLACEMENT_3D($,#415,#334,#335);
#271=AXIS2_PLACEMENT_3D($,#417,#336,#337);
#272=AXIS2_PLACEMENT_3D($,#420,#338,#339);
#273=AXIS2_PLACEMENT_3D($,#421,#340,#341);
#274=AXIS2_PLACEMENT_3D($,#422,#342,#343);
#275=AXIS2_PLACEMENT_3D($,#423,#344,#345);
#276=AXIS2_PLACEMENT_3D($,#424,#346,#347);
#277=AXIS2_PLACEMENT_3D($,#426,#348,#349);
#278=AXIS2_PLACEMENT_3D($,#427,#350,#351);
#279=AXIS2_PLACEMENT_3D($,#429,#352,#353);
#280=AXIS2_PLACEMENT_3D($,#431,#354,#355);
#281=AXIS2_PLACEMENT_3D($,#432,#356,#357);
#282=AXIS2_PLACEMENT_3D($,#434,#358,#359);
#283=AXIS2_PLACEMENT_3D($,#436,#360,#361);
#284=AXIS2_PLACEMENT_3D($,#437,#362,#363);
#285=AXIS2_PLACEMENT_3D($,#439,#364,#365);
#286=AXIS2_PLACEMENT_3D($,#440,#366,#367);
#287=AXIS2_PLACEMENT_3D($,#442,#368,#369);
#288=AXIS2_PLACEMENT_3D($,#443,#370,#371);
#289=AXIS2_PLACEMENT_3D($,#444,#372,#373);
#290=AXIS2_PLACEMENT_3D($,#445,#374,#375);
#291=AXIS2_PLACEMENT_3D($,#446,#376,#377);
#292=AXIS2_PLACEMENT_3D($,#447,#378,#379);
#293=AXIS2_PLACEMENT_3D($,#448,#380,#381);
#294=AXIS2_PLACEMENT_3D($,#449,#382,#383);
#295=AXIS2_PLACEMENT_3D($,#450,#384,#385);
#296=DIRECTION('axis',(0.,0.,1.));
#297=DIRECTION('refdir',(1.,0.,0.));
#298=DIRECTION('center_axis',(-1.,0.,0.));
#299=DIRECTION('ref_axis',(0.,0.,1.));
#300=DIRECTION('center_axis',(-0.707106781186547,0.707106781186548,0.));
#301=DIRECTION('ref_axis',(0.707106781186548,0.707106781186547,0.));
#302=DIRECTION('center_axis',(-0.707106781186547,-0.707106781186548,0.));
#303=DIRECTION('ref_axis',(-0.707106781186548,0.707106781186547,0.));
#304=DIRECTION('center_axis',(1.,0.,0.));
#305=DIRECTION('ref_axis',(0.,0.,1.));
#306=DIRECTION('center_axis',(-1.,0.,0.));
#307=DIRECTION('ref_axis',(0.,0.,1.));
#308=DIRECTION('center_axis',(0.707106781186547,0.707106781186548,0.));
#309=DIRECTION('ref_axis',(-0.707106781186548,0.707106781186547,0.));
#310=DIRECTION('center_axis',(0.707106781186547,-0.707106781186548,0.));
#311=DIRECTION('ref_axis',(0.707106781186548,0.707106781186547,0.));
#312=DIRECTION('center_axis',(-1.,0.,0.));
#313=DIRECTION('ref_axis',(0.,0.,1.));
#314=DIRECTION('center_axis',(0.,1.,0.));
#315=DIRECTION('ref_axis',(-1.,0.,0.));
#316=DIRECTION('center_axis',(0.,-1.,0.));
#317=DIRECTION('ref_axis',(-1.,0.,0.));
#318=DIRECTION('center_axis',(0.,1.,0.));
#319=DIRECTION('ref_axis',(-1.,0.,0.));
#320=DIRECTION('center_axis',(0.,1.,0.));
#321=DIRECTION('ref_axis',(-1.,0.,0.));
#322=DIRECTION('center_axis',(0.,1.,0.));
#323=DIRECTION('ref_axis',(1.,0.,0.));
#324=DIRECTION('center_axis',(0.,-1.,0.));
#325=DIRECTION('ref_axis',(1.,0.,0.));
#326=DIRECTION('center_axis',(0.,-1.,0.));
#327=DIRECTION('ref_axis',(1.,0.,0.));
#328=DIRECTION('center_axis',(0.,1.,0.));
#329=DIRECTION('ref_axis',(1.,0.,0.));
#330=DIRECTION('center_axis',(0.,-1.,0.));
#331=DIRECTION('ref_axis',(1.,0.,0.));
#332=DIRECTION('center_axis',(0.,1.,0.));
#333=DIRECTION('ref_axis',(1.,0.,0.));
#334=DIRECTION('center_axis',(1.,0.,0.));
#335=DIRECTION('ref_axis',(0.,-1.,0.));
#336=DIRECTION('center_axis',(-1.,0.,0.));
#337=DIRECTION('ref_axis',(0.,-1.,0.));
#338=DIRECTION('center_axis',(0.707106781186548,0.707106781186547,0.));
#339=DIRECTION('ref_axis',(0.707106781186547,-0.707106781186548,0.));
#340=DIRECTION('center_axis',(0.707106781186548,-0.707106781186548,0.));
#341=DIRECTION('ref_axis',(-0.707106781186547,-0.707106781186547,0.));
#342=DIRECTION('center_axis',(1.,0.,0.));
#343=DIRECTION('ref_axis',(0.,-1.,0.));
#344=DIRECTION('center_axis',(-0.707106781186548,0.707106781186548,0.));
#345=DIRECTION('ref_axis',(-0.707106781186547,-0.707106781186547,0.));
#346=DIRECTION('center_axis',(-0.707106781186548,-0.707106781186547,0.));
#347=DIRECTION('ref_axis',(0.707106781186547,-0.707106781186548,0.));
#348=DIRECTION('center_axis',(-1.,0.,0.));
#349=DIRECTION('ref_axis',(0.,-1.,0.));
#350=DIRECTION('center_axis',(1.,0.,0.));
#351=DIRECTION('ref_axis',(0.,-1.,0.));
#352=DIRECTION('center_axis',(-1.,0.,0.));
#353=DIRECTION('ref_axis',(0.,-1.,0.));
#354=DIRECTION('center_axis',(1.,0.,0.));
#355=DIRECTION('ref_axis',(0.,-1.,0.));
#356=DIRECTION('center_axis',(1.,0.,0.));
#357=DIRECTION('ref_axis',(0.,-1.,0.));
#358=DIRECTION('center_axis',(-1.,0.,0.));
#359=DIRECTION('ref_axis',(0.,-1.,0.));
#360=DIRECTION('center_axis',(-1.,0.,0.));
#361=DIRECTION('ref_axis',(0.,-1.,0.));
#362=DIRECTION('center_axis',(0.,1.,0.));
#363=DIRECTION('ref_axis',(1.,0.,0.));
#364=DIRECTION('center_axis',(0.,-1.,0.));
#365=DIRECTION('ref_axis',(1.,0.,0.));
#366=DIRECTION('center_axis',(0.,1.,0.));
#367=DIRECTION('ref_axis',(1.,0.,0.));
#368=DIRECTION('center_axis',(0.,-1.,0.));
#369=DIRECTION('ref_axis',(1.,0.,0.));
#370=DIRECTION('center_axis',(0.,1.,0.));
#371=DIRECTION('ref_axis',(0.,0.,1.));
#372=DIRECTION('center_axis',(0.,-1.,0.));
#373=DIRECTION('ref_axis',(0.,0.,-1.));
#374=DIRECTION('center_axis',(-1.,0.,0.));
#375=DIRECTION('ref_axis',(0.,0.,1.));
#376=DIRECTION('center_axis',(1.,0.,0.));
#377=DIRECTION('ref_axis',(0.,0.,-1.));
#378=DIRECTION('center_axis',(1.,0.,0.));
#379=DIRECTION('ref_axis',(0.,0.,-1.));
#380=DIRECTION('center_axis',(-1.,0.,0.));
#381=DIRECTION('ref_axis',(0.,0.,1.));
#382=DIRECTION('center_axis',(0.,1.,0.));
#383=DIRECTION('ref_axis',(0.,0.,1.));
#384=DIRECTION('center_axis',(0.,-1.,0.));
#385=DIRECTION('ref_axis',(0.,0.,-1.));
#386=CARTESIAN_POINT('',(0.,0.,0.));
#387=CARTESIAN_POINT('Origin',(33.,32.999895224123,8.51189890127557E-006));
#388=CARTESIAN_POINT('',(8.88178419700125E-015,32.999895224123,-11.9999914881011));
#389=CARTESIAN_POINT('',(8.88178419700125E-015,32.999895224123,12.0000085118989));
#390=CARTESIAN_POINT('Origin',(8.88178419700125E-015,32.999895224123,8.51189890127557E-006));
#391=CARTESIAN_POINT('Origin',(8.88178419700125E-015,32.999895224123,8.51189890127557E-006));
#392=CARTESIAN_POINT('',(-14.,38.8093702434342,10.5000085118989));
#393=CARTESIAN_POINT('Origin',(-14.,32.999895224123,8.51189890127557E-006));
#394=CARTESIAN_POINT('Origin',(33.,32.999895224123,8.51189890127557E-006));
#395=CARTESIAN_POINT('Origin',(8.88178419700125E-015,32.999895224123,8.51189890127557E-006));
#396=CARTESIAN_POINT('Origin',(8.88178419700125E-015,32.999895224123,8.51189890127557E-006));
#397=CARTESIAN_POINT('',(14.,27.1904202048119,10.5000085118989));
#398=CARTESIAN_POINT('Origin',(14.,32.999895224123,8.51189890127557E-006));
#399=CARTESIAN_POINT('Origin',(8.88178419700125E-015,18.999895224123,8.51189890127557E-006));
#400=CARTESIAN_POINT('',(12.,46.999895224123,8.51189890127557E-006));
#401=CARTESIAN_POINT('Origin',(8.88178419700125E-015,46.999895224123,8.51189890127557E-006));
#402=CARTESIAN_POINT('Origin',(8.88178419700125E-015,18.999895224123,8.51189890127557E-006));
#403=CARTESIAN_POINT('',(12.,18.999895224123,8.51189890127557E-006));
#404=CARTESIAN_POINT('Origin',(8.88178419700125E-015,18.999895224123,8.51189890127557E-006));
#405=CARTESIAN_POINT('Origin',(8.88178419700125E-015,56.499895224123,8.51189890127557E-006));
#406=CARTESIAN_POINT('',(-12.5,65.999895224123,8.51189890127557E-006));
#407=CARTESIAN_POINT('Origin',(8.88178419700125E-015,65.999895224123,8.51189890127557E-006));
#408=CARTESIAN_POINT('',(-12.5,46.999895224123,8.51189890127557E-006));
#409=CARTESIAN_POINT('Origin',(8.88178419700125E-015,46.999895224123,8.51189890127557E-006));
#410=CARTESIAN_POINT('Origin',(8.88178419700125E-015,9.49989522412299,8.51189890127557E-006));
#411=CARTESIAN_POINT('',(-12.5,18.999895224123,8.51189890127557E-006));
#412=CARTESIAN_POINT('Origin',(8.88178419700125E-015,18.999895224123,8.51189890127557E-006));
#413=CARTESIAN_POINT('',(-12.5,-0.000104775876970109,8.51189890127557E-006));
#414=CARTESIAN_POINT('Origin',(8.88178419700125E-015,-0.000104775876970109,
8.51189890127557E-006));
#415=CARTESIAN_POINT('Origin',(-33.,32.999895224123,8.51189890127557E-006));
#416=CARTESIAN_POINT('',(-33.,50.499895224123,8.51189890127557E-006));
#417=CARTESIAN_POINT('Origin',(-33.,32.999895224123,8.51189890127557E-006));
#418=CARTESIAN_POINT('',(8.88178419700125E-015,32.999895224123,-17.4999914881011));
#419=CARTESIAN_POINT('',(8.88178419700125E-015,32.999895224123,17.5000085118989));
#420=CARTESIAN_POINT('Origin',(8.88178419700125E-015,32.999895224123,8.51189890127557E-006));
#421=CARTESIAN_POINT('Origin',(8.88178419700125E-015,32.999895224123,8.51189890127557E-006));
#422=CARTESIAN_POINT('Origin',(-33.,32.999895224123,8.51189890127557E-006));
#423=CARTESIAN_POINT('Origin',(8.88178419700125E-015,32.999895224123,8.51189890127557E-006));
#424=CARTESIAN_POINT('Origin',(8.88178419700125E-015,32.999895224123,8.51189890127557E-006));
#425=CARTESIAN_POINT('',(33.,50.499895224123,8.51189890127557E-006));
#426=CARTESIAN_POINT('Origin',(33.,32.999895224123,8.51189890127557E-006));
#427=CARTESIAN_POINT('Origin',(-23.5,32.999895224123,8.51189890127557E-006));
#428=CARTESIAN_POINT('',(-14.,32.999895224123,12.5000085118989));
#429=CARTESIAN_POINT('Origin',(-14.,32.999895224123,8.51189890127557E-006));
#430=CARTESIAN_POINT('',(-33.,45.499895224123,8.51189890127557E-006));
#431=CARTESIAN_POINT('Origin',(-33.,32.999895224123,8.51189890127557E-006));
#432=CARTESIAN_POINT('Origin',(23.5,32.999895224123,8.51189890127557E-006));
#433=CARTESIAN_POINT('',(33.,45.499895224123,8.51189890127557E-006));
#434=CARTESIAN_POINT('Origin',(33.,32.999895224123,8.51189890127557E-006));
#435=CARTESIAN_POINT('',(14.,32.999895224123,-12.4999914881011));
#436=CARTESIAN_POINT('Origin',(14.,32.999895224123,8.51189890127557E-006));
#437=CARTESIAN_POINT('Origin',(8.88178419700125E-015,-0.000104775876970109,
8.51189890127557E-006));
#438=CARTESIAN_POINT('',(-17.5,-0.000104775876970109,8.51189890127557E-006));
#439=CARTESIAN_POINT('Origin',(8.88178419700125E-015,-0.000104775876970109,
8.51189890127557E-006));
#440=CARTESIAN_POINT('Origin',(8.88178419700125E-015,-0.000104775876970109,
8.51189890127557E-006));
#441=CARTESIAN_POINT('',(-17.5,65.999895224123,8.51189890127557E-006));
#442=CARTESIAN_POINT('Origin',(8.88178419700125E-015,65.999895224123,8.51189890127557E-006));
#443=CARTESIAN_POINT('Origin',(8.88178419700125E-015,46.999895224123,8.51189890127557E-006));
#444=CARTESIAN_POINT('Origin',(8.88178419700125E-015,18.999895224123,8.51189890127557E-006));
#445=CARTESIAN_POINT('Origin',(-14.,32.999895224123,8.51189890127557E-006));
#446=CARTESIAN_POINT('Origin',(14.,32.999895224123,8.51189890127557E-006));
#447=CARTESIAN_POINT('Origin',(33.,32.999895224123,8.51189890127557E-006));
#448=CARTESIAN_POINT('Origin',(-33.,32.999895224123,8.51189890127557E-006));
#449=CARTESIAN_POINT('Origin',(8.88178419700125E-015,65.999895224123,8.51189890127557E-006));
#450=CARTESIAN_POINT('Origin',(8.88178419700125E-015,-0.000104775876970109,
8.51189890127557E-006));
#451=UNCERTAINTY_MEASURE_WITH_UNIT(LENGTH_MEASURE(0.01),#453,
'DISTANCE_ACCURACY_VALUE',
'Maximum model space distance between geometric entities at asserted c
onnectivities');
#452=(
GEOMETRIC_REPRESENTATION_CONTEXT(3)
GLOBAL_UNCERTAINTY_ASSIGNED_CONTEXT((#451))
GLOBAL_UNIT_ASSIGNED_CONTEXT((#453,#456,#454))
REPRESENTATION_CONTEXT('','3D')
);
#453=(
LENGTH_UNIT()
NAMED_UNIT(*)
SI_UNIT(.MILLI.,.METRE.)
);
#454=(
NAMED_UNIT(*)
SI_UNIT($,.STERADIAN.)
SOLID_ANGLE_UNIT()
);
#455=DIMENSIONAL_EXPONENTS(0.,0.,0.,0.,0.,0.,0.);
#456=(
CONVERSION_BASED_UNIT('degree',#458)
NAMED_UNIT(#455)
PLANE_ANGLE_UNIT()
);
#457=(
NAMED_UNIT(*)
PLANE_ANGLE_UNIT()
SI_UNIT($,.RADIAN.)
);
#458=PLANE_ANGLE_MEASURE_WITH_UNIT(PLANE_ANGLE_MEASURE(0.01745329252),#457);
#459=SHAPE_DEFINITION_REPRESENTATION(#460,#461);
#460=PRODUCT_DEFINITION_SHAPE('',$,#463);
#461=SHAPE_REPRESENTATION('',(#251),#452);
#462=PRODUCT_DEFINITION_CONTEXT('3D Mechanical Parts',#466,'design');
#463=PRODUCT_DEFINITION('XIV025','XIV025',#464,#462);
#464=PRODUCT_DEFINITION_FORMATION('',$,#468);
#465=APPLICATION_PROTOCOL_DEFINITION('international standard',
'automotive_design',2009,#466);
#466=APPLICATION_CONTEXT(
'Core Data for Automotive Mechanical Design Process');
#467=PRODUCT_CONTEXT('3D Mechanical Parts',#466,'mechanical');
#468=PRODUCT('XIV025','XIV025',$,(#467));
#469=PRESENTATION_STYLE_ASSIGNMENT((#470));
#470=SURFACE_STYLE_USAGE(.BOTH.,#471);
#471=SURFACE_SIDE_STYLE($,(#472));
#472=SURFACE_STYLE_FILL_AREA(#473);
#473=FILL_AREA_STYLE($,(#474));
#474=FILL_AREA_STYLE_COLOUR($,#475);
#475=COLOUR_RGB('',0.509803921568627,0.509803921568627,0.588235294117647);
ENDSEC;
END-ISO-10303-21;
