ISO-10303-21;
HEADER;
/* Generated by software containing ST-Developer
 * from STEP Tools, Inc. (www.steptools.com) 
 */

FILE_DESCRIPTION(
/* description */ (''),
/* implementation_level */ '2;1');

FILE_NAME(
/* name */ 
'Q:\\Ric010\\FF7\\FIPlastiCAD\\FIP\\Lavoro\\PVC Fittings\\PVC Fittings
 STEP\\DIFV\\DIFV050040112.ipt.stp',
/* time_stamp */ '2013-10-01T14:36:52+02:00',
/* author */ ('bfaro'),
/* organization */ (''),
/* preprocessor_version */ 'ST-DEVELOPER v15.2',
/* originating_system */ 'Autodesk Inventor 2014',
/* authorisation */ '');

FILE_SCHEMA (('AUTOMOTIVE_DESIGN { 1 0 10303 214 3 1 1 }'));
ENDSEC;

DATA;
#10=SHAPE_REPRESENTATION_RELATIONSHIP('SRR','None',#544,#11);
#11=ADVANCED_BREP_SHAPE_REPRESENTATION($,(#321),#535);
#12=STYLED_ITEM($,(#553),#316);
#13=STYLED_ITEM($,(#552),#321);
#14=LINE($,#463,#38);
#15=LINE($,#465,#39);
#16=LINE($,#467,#40);
#17=LINE($,#469,#41);
#18=LINE($,#471,#42);
#19=LINE($,#473,#43);
#20=LINE($,#475,#44);
#21=LINE($,#476,#45);
#22=LINE($,#482,#46);
#23=LINE($,#483,#47);
#24=LINE($,#484,#48);
#25=LINE($,#487,#49);
#26=LINE($,#488,#50);
#27=LINE($,#491,#51);
#28=LINE($,#492,#52);
#29=LINE($,#495,#53);
#30=LINE($,#496,#54);
#31=LINE($,#499,#55);
#32=LINE($,#500,#56);
#33=LINE($,#503,#57);
#34=LINE($,#504,#58);
#35=LINE($,#507,#59);
#36=LINE($,#508,#60);
#37=LINE($,#510,#61);
#38=VECTOR($,#374,26.1557842618221);
#39=VECTOR($,#375,26.1557842618221);
#40=VECTOR($,#376,26.1557842618221);
#41=VECTOR($,#377,26.1557842618221);
#42=VECTOR($,#378,26.1557842618221);
#43=VECTOR($,#379,26.1557842618221);
#44=VECTOR($,#380,26.1557842618221);
#45=VECTOR($,#381,26.1557842618221);
#46=VECTOR($,#386,26.1557842618221);
#47=VECTOR($,#387,14.);
#48=VECTOR($,#388,14.);
#49=VECTOR($,#391,26.1557842618221);
#50=VECTOR($,#392,14.);
#51=VECTOR($,#395,26.1557842618221);
#52=VECTOR($,#396,14.);
#53=VECTOR($,#399,26.1557842618221);
#54=VECTOR($,#400,14.);
#55=VECTOR($,#403,26.1557842618221);
#56=VECTOR($,#404,14.);
#57=VECTOR($,#407,26.1557842618221);
#58=VECTOR($,#408,14.);
#59=VECTOR($,#411,26.1557842618221);
#60=VECTOR($,#412,14.);
#61=VECTOR($,#415,26.1557842618221);
#62=PLANE($,#326);
#63=PLANE($,#328);
#64=PLANE($,#330);
#65=PLANE($,#332);
#66=PLANE($,#333);
#67=PLANE($,#334);
#68=PLANE($,#335);
#69=PLANE($,#336);
#70=PLANE($,#337);
#71=PLANE($,#338);
#72=PLANE($,#339);
#73=PLANE($,#340);
#74=PLANE($,#345);
#75=PLANE($,#348);
#76=PLANE($,#353);
#77=FACE_BOUND($,#112,.T.);
#78=FACE_BOUND($,#113,.T.);
#79=FACE_BOUND($,#114,.T.);
#80=FACE_BOUND($,#115,.T.);
#81=FACE_BOUND($,#116,.T.);
#82=FACE_BOUND($,#118,.T.);
#83=FACE_BOUND($,#128,.T.);
#84=FACE_BOUND($,#130,.T.);
#85=FACE_BOUND($,#132,.T.);
#86=FACE_BOUND($,#134,.T.);
#87=FACE_BOUND($,#135,.T.);
#88=FACE_BOUND($,#136,.T.);
#89=FACE_BOUND($,#138,.T.);
#90=FACE_BOUND($,#140,.T.);
#91=FACE_BOUND($,#142,.T.);
#92=FACE_BOUND($,#144,.T.);
#93=FACE_OUTER_BOUND($,#111,.T.);
#94=FACE_OUTER_BOUND($,#117,.T.);
#95=FACE_OUTER_BOUND($,#119,.T.);
#96=FACE_OUTER_BOUND($,#120,.T.);
#97=FACE_OUTER_BOUND($,#121,.T.);
#98=FACE_OUTER_BOUND($,#122,.T.);
#99=FACE_OUTER_BOUND($,#123,.T.);
#100=FACE_OUTER_BOUND($,#124,.T.);
#101=FACE_OUTER_BOUND($,#125,.T.);
#102=FACE_OUTER_BOUND($,#126,.T.);
#103=FACE_OUTER_BOUND($,#127,.T.);
#104=FACE_OUTER_BOUND($,#129,.T.);
#105=FACE_OUTER_BOUND($,#131,.T.);
#106=FACE_OUTER_BOUND($,#133,.T.);
#107=FACE_OUTER_BOUND($,#137,.T.);
#108=FACE_OUTER_BOUND($,#139,.T.);
#109=FACE_OUTER_BOUND($,#141,.T.);
#110=FACE_OUTER_BOUND($,#143,.T.);
#111=EDGE_LOOP($,(#221));
#112=EDGE_LOOP($,(#222));
#113=EDGE_LOOP($,(#223));
#114=EDGE_LOOP($,(#224));
#115=EDGE_LOOP($,(#225));
#116=EDGE_LOOP($,(#226));
#117=EDGE_LOOP($,(#227,#228,#229,#230,#231,#232,#233,#234));
#118=EDGE_LOOP($,(#235));
#119=EDGE_LOOP($,(#236,#237,#238,#239));
#120=EDGE_LOOP($,(#240,#241,#242,#243));
#121=EDGE_LOOP($,(#244,#245,#246,#247));
#122=EDGE_LOOP($,(#248,#249,#250,#251));
#123=EDGE_LOOP($,(#252,#253,#254,#255));
#124=EDGE_LOOP($,(#256,#257,#258,#259));
#125=EDGE_LOOP($,(#260,#261,#262,#263));
#126=EDGE_LOOP($,(#264,#265,#266,#267));
#127=EDGE_LOOP($,(#268));
#128=EDGE_LOOP($,(#269));
#129=EDGE_LOOP($,(#270));
#130=EDGE_LOOP($,(#271));
#131=EDGE_LOOP($,(#272,#273,#274,#275,#276,#277,#278,#279));
#132=EDGE_LOOP($,(#280));
#133=EDGE_LOOP($,(#281));
#134=EDGE_LOOP($,(#282));
#135=EDGE_LOOP($,(#283));
#136=EDGE_LOOP($,(#284));
#137=EDGE_LOOP($,(#285));
#138=EDGE_LOOP($,(#286));
#139=EDGE_LOOP($,(#287));
#140=EDGE_LOOP($,(#288));
#141=EDGE_LOOP($,(#289));
#142=EDGE_LOOP($,(#290));
#143=EDGE_LOOP($,(#291));
#144=EDGE_LOOP($,(#292));
#145=CIRCLE($,#324,21.1);
#146=CIRCLE($,#325,21.1);
#147=CIRCLE($,#327,19.);
#148=CIRCLE($,#329,22.4225);
#149=CIRCLE($,#331,30.5);
#150=CIRCLE($,#341,25.);
#151=CIRCLE($,#342,20.);
#152=CIRCLE($,#344,25.);
#153=CIRCLE($,#347,30.5);
#154=CIRCLE($,#349,22.4225);
#155=CIRCLE($,#352,19.);
#156=CIRCLE($,#354,20.);
#157=VERTEX_POINT($,#450);
#158=VERTEX_POINT($,#452);
#159=VERTEX_POINT($,#455);
#160=VERTEX_POINT($,#458);
#161=VERTEX_POINT($,#461);
#162=VERTEX_POINT($,#462);
#163=VERTEX_POINT($,#464);
#164=VERTEX_POINT($,#466);
#165=VERTEX_POINT($,#468);
#166=VERTEX_POINT($,#470);
#167=VERTEX_POINT($,#472);
#168=VERTEX_POINT($,#474);
#169=VERTEX_POINT($,#477);
#170=VERTEX_POINT($,#480);
#171=VERTEX_POINT($,#481);
#172=VERTEX_POINT($,#486);
#173=VERTEX_POINT($,#490);
#174=VERTEX_POINT($,#494);
#175=VERTEX_POINT($,#498);
#176=VERTEX_POINT($,#502);
#177=VERTEX_POINT($,#506);
#178=VERTEX_POINT($,#512);
#179=VERTEX_POINT($,#514);
#180=VERTEX_POINT($,#517);
#181=VERTEX_POINT($,#521);
#182=VERTEX_POINT($,#524);
#183=VERTEX_POINT($,#528);
#184=VERTEX_POINT($,#531);
#185=EDGE_CURVE($,#157,#157,#145,.T.);
#186=EDGE_CURVE($,#158,#158,#146,.T.);
#187=EDGE_CURVE($,#159,#159,#147,.T.);
#188=EDGE_CURVE($,#160,#160,#148,.T.);
#189=EDGE_CURVE($,#161,#162,#14,.T.);
#190=EDGE_CURVE($,#162,#163,#15,.T.);
#191=EDGE_CURVE($,#163,#164,#16,.T.);
#192=EDGE_CURVE($,#164,#165,#17,.T.);
#193=EDGE_CURVE($,#165,#166,#18,.T.);
#194=EDGE_CURVE($,#166,#167,#19,.T.);
#195=EDGE_CURVE($,#167,#168,#20,.T.);
#196=EDGE_CURVE($,#168,#161,#21,.T.);
#197=EDGE_CURVE($,#169,#169,#149,.T.);
#198=EDGE_CURVE($,#170,#171,#22,.T.);
#199=EDGE_CURVE($,#171,#161,#23,.T.);
#200=EDGE_CURVE($,#170,#168,#24,.T.);
#201=EDGE_CURVE($,#172,#170,#25,.T.);
#202=EDGE_CURVE($,#172,#167,#26,.T.);
#203=EDGE_CURVE($,#173,#172,#27,.T.);
#204=EDGE_CURVE($,#173,#166,#28,.T.);
#205=EDGE_CURVE($,#174,#173,#29,.T.);
#206=EDGE_CURVE($,#174,#165,#30,.T.);
#207=EDGE_CURVE($,#175,#174,#31,.T.);
#208=EDGE_CURVE($,#175,#164,#32,.T.);
#209=EDGE_CURVE($,#176,#175,#33,.T.);
#210=EDGE_CURVE($,#176,#163,#34,.T.);
#211=EDGE_CURVE($,#177,#176,#35,.T.);
#212=EDGE_CURVE($,#177,#162,#36,.T.);
#213=EDGE_CURVE($,#171,#177,#37,.T.);
#214=EDGE_CURVE($,#178,#178,#150,.T.);
#215=EDGE_CURVE($,#179,#179,#151,.T.);
#216=EDGE_CURVE($,#180,#180,#152,.T.);
#217=EDGE_CURVE($,#181,#181,#153,.T.);
#218=EDGE_CURVE($,#182,#182,#154,.T.);
#219=EDGE_CURVE($,#183,#183,#155,.T.);
#220=EDGE_CURVE($,#184,#184,#156,.T.);
#221=ORIENTED_EDGE($,*,*,#185,.T.);
#222=ORIENTED_EDGE($,*,*,#186,.F.);
#223=ORIENTED_EDGE($,*,*,#187,.F.);
#224=ORIENTED_EDGE($,*,*,#185,.F.);
#225=ORIENTED_EDGE($,*,*,#186,.T.);
#226=ORIENTED_EDGE($,*,*,#188,.F.);
#227=ORIENTED_EDGE($,*,*,#189,.T.);
#228=ORIENTED_EDGE($,*,*,#190,.T.);
#229=ORIENTED_EDGE($,*,*,#191,.T.);
#230=ORIENTED_EDGE($,*,*,#192,.T.);
#231=ORIENTED_EDGE($,*,*,#193,.T.);
#232=ORIENTED_EDGE($,*,*,#194,.T.);
#233=ORIENTED_EDGE($,*,*,#195,.T.);
#234=ORIENTED_EDGE($,*,*,#196,.T.);
#235=ORIENTED_EDGE($,*,*,#197,.F.);
#236=ORIENTED_EDGE($,*,*,#198,.T.);
#237=ORIENTED_EDGE($,*,*,#199,.T.);
#238=ORIENTED_EDGE($,*,*,#196,.F.);
#239=ORIENTED_EDGE($,*,*,#200,.F.);
#240=ORIENTED_EDGE($,*,*,#201,.T.);
#241=ORIENTED_EDGE($,*,*,#200,.T.);
#242=ORIENTED_EDGE($,*,*,#195,.F.);
#243=ORIENTED_EDGE($,*,*,#202,.F.);
#244=ORIENTED_EDGE($,*,*,#203,.T.);
#245=ORIENTED_EDGE($,*,*,#202,.T.);
#246=ORIENTED_EDGE($,*,*,#194,.F.);
#247=ORIENTED_EDGE($,*,*,#204,.F.);
#248=ORIENTED_EDGE($,*,*,#205,.T.);
#249=ORIENTED_EDGE($,*,*,#204,.T.);
#250=ORIENTED_EDGE($,*,*,#193,.F.);
#251=ORIENTED_EDGE($,*,*,#206,.F.);
#252=ORIENTED_EDGE($,*,*,#207,.T.);
#253=ORIENTED_EDGE($,*,*,#206,.T.);
#254=ORIENTED_EDGE($,*,*,#192,.F.);
#255=ORIENTED_EDGE($,*,*,#208,.F.);
#256=ORIENTED_EDGE($,*,*,#209,.T.);
#257=ORIENTED_EDGE($,*,*,#208,.T.);
#258=ORIENTED_EDGE($,*,*,#191,.F.);
#259=ORIENTED_EDGE($,*,*,#210,.F.);
#260=ORIENTED_EDGE($,*,*,#211,.T.);
#261=ORIENTED_EDGE($,*,*,#210,.T.);
#262=ORIENTED_EDGE($,*,*,#190,.F.);
#263=ORIENTED_EDGE($,*,*,#212,.F.);
#264=ORIENTED_EDGE($,*,*,#213,.T.);
#265=ORIENTED_EDGE($,*,*,#212,.T.);
#266=ORIENTED_EDGE($,*,*,#189,.F.);
#267=ORIENTED_EDGE($,*,*,#199,.F.);
#268=ORIENTED_EDGE($,*,*,#214,.F.);
#269=ORIENTED_EDGE($,*,*,#215,.T.);
#270=ORIENTED_EDGE($,*,*,#216,.F.);
#271=ORIENTED_EDGE($,*,*,#214,.T.);
#272=ORIENTED_EDGE($,*,*,#213,.F.);
#273=ORIENTED_EDGE($,*,*,#198,.F.);
#274=ORIENTED_EDGE($,*,*,#201,.F.);
#275=ORIENTED_EDGE($,*,*,#203,.F.);
#276=ORIENTED_EDGE($,*,*,#205,.F.);
#277=ORIENTED_EDGE($,*,*,#207,.F.);
#278=ORIENTED_EDGE($,*,*,#209,.F.);
#279=ORIENTED_EDGE($,*,*,#211,.F.);
#280=ORIENTED_EDGE($,*,*,#216,.T.);
#281=ORIENTED_EDGE($,*,*,#197,.T.);
#282=ORIENTED_EDGE($,*,*,#217,.F.);
#283=ORIENTED_EDGE($,*,*,#218,.F.);
#284=ORIENTED_EDGE($,*,*,#217,.T.);
#285=ORIENTED_EDGE($,*,*,#188,.T.);
#286=ORIENTED_EDGE($,*,*,#218,.T.);
#287=ORIENTED_EDGE($,*,*,#187,.T.);
#288=ORIENTED_EDGE($,*,*,#219,.F.);
#289=ORIENTED_EDGE($,*,*,#220,.F.);
#290=ORIENTED_EDGE($,*,*,#219,.T.);
#291=ORIENTED_EDGE($,*,*,#215,.F.);
#292=ORIENTED_EDGE($,*,*,#220,.T.);
#293=CYLINDRICAL_SURFACE($,#323,21.1);
#294=CYLINDRICAL_SURFACE($,#343,25.);
#295=CYLINDRICAL_SURFACE($,#346,30.5);
#296=CYLINDRICAL_SURFACE($,#350,22.4225);
#297=CYLINDRICAL_SURFACE($,#351,19.);
#298=CYLINDRICAL_SURFACE($,#355,20.);
#299=ADVANCED_FACE($,(#93,#77),#293,.F.);
#300=ADVANCED_FACE($,(#78,#79),#62,.T.);
#301=ADVANCED_FACE($,(#80,#81),#63,.T.);
#302=ADVANCED_FACE($,(#94,#82),#64,.T.);
#303=ADVANCED_FACE($,(#95),#65,.T.);
#304=ADVANCED_FACE($,(#96),#66,.T.);
#305=ADVANCED_FACE($,(#97),#67,.T.);
#306=ADVANCED_FACE($,(#98),#68,.T.);
#307=ADVANCED_FACE($,(#99),#69,.T.);
#308=ADVANCED_FACE($,(#100),#70,.T.);
#309=ADVANCED_FACE($,(#101),#71,.T.);
#310=ADVANCED_FACE($,(#102),#72,.T.);
#311=ADVANCED_FACE($,(#103,#83),#73,.T.);
#312=ADVANCED_FACE($,(#104,#84),#294,.T.);
#313=ADVANCED_FACE($,(#105,#85),#74,.T.);
#314=ADVANCED_FACE($,(#106,#86),#295,.T.);
#315=ADVANCED_FACE($,(#87,#88),#75,.T.);
#316=ADVANCED_FACE($,(#107,#89),#296,.F.);
#317=ADVANCED_FACE($,(#108,#90),#297,.F.);
#318=ADVANCED_FACE($,(#109,#91),#76,.T.);
#319=ADVANCED_FACE($,(#110,#92),#298,.F.);
#320=CLOSED_SHELL($,(#299,#300,#301,#302,#303,#304,#305,#306,#307,#308,
#309,#310,#311,#312,#313,#314,#315,#316,#317,#318,#319));
#321=MANIFOLD_SOLID_BREP('Solido1',#320);
#322=AXIS2_PLACEMENT_3D('placement',#448,#356,#357);
#323=AXIS2_PLACEMENT_3D($,#449,#358,#359);
#324=AXIS2_PLACEMENT_3D($,#451,#360,#361);
#325=AXIS2_PLACEMENT_3D($,#453,#362,#363);
#326=AXIS2_PLACEMENT_3D($,#454,#364,#365);
#327=AXIS2_PLACEMENT_3D($,#456,#366,#367);
#328=AXIS2_PLACEMENT_3D($,#457,#368,#369);
#329=AXIS2_PLACEMENT_3D($,#459,#370,#371);
#330=AXIS2_PLACEMENT_3D($,#460,#372,#373);
#331=AXIS2_PLACEMENT_3D($,#478,#382,#383);
#332=AXIS2_PLACEMENT_3D($,#479,#384,#385);
#333=AXIS2_PLACEMENT_3D($,#485,#389,#390);
#334=AXIS2_PLACEMENT_3D($,#489,#393,#394);
#335=AXIS2_PLACEMENT_3D($,#493,#397,#398);
#336=AXIS2_PLACEMENT_3D($,#497,#401,#402);
#337=AXIS2_PLACEMENT_3D($,#501,#405,#406);
#338=AXIS2_PLACEMENT_3D($,#505,#409,#410);
#339=AXIS2_PLACEMENT_3D($,#509,#413,#414);
#340=AXIS2_PLACEMENT_3D($,#511,#416,#417);
#341=AXIS2_PLACEMENT_3D($,#513,#418,#419);
#342=AXIS2_PLACEMENT_3D($,#515,#420,#421);
#343=AXIS2_PLACEMENT_3D($,#516,#422,#423);
#344=AXIS2_PLACEMENT_3D($,#518,#424,#425);
#345=AXIS2_PLACEMENT_3D($,#519,#426,#427);
#346=AXIS2_PLACEMENT_3D($,#520,#428,#429);
#347=AXIS2_PLACEMENT_3D($,#522,#430,#431);
#348=AXIS2_PLACEMENT_3D($,#523,#432,#433);
#349=AXIS2_PLACEMENT_3D($,#525,#434,#435);
#350=AXIS2_PLACEMENT_3D($,#526,#436,#437);
#351=AXIS2_PLACEMENT_3D($,#527,#438,#439);
#352=AXIS2_PLACEMENT_3D($,#529,#440,#441);
#353=AXIS2_PLACEMENT_3D($,#530,#442,#443);
#354=AXIS2_PLACEMENT_3D($,#532,#444,#445);
#355=AXIS2_PLACEMENT_3D($,#533,#446,#447);
#356=DIRECTION('axis',(0.,0.,1.));
#357=DIRECTION('refdir',(1.,0.,0.));
#358=DIRECTION('center_axis',(0.,0.,-1.));
#359=DIRECTION('ref_axis',(-1.,0.,0.));
#360=DIRECTION('center_axis',(0.,0.,-1.));
#361=DIRECTION('ref_axis',(-1.,0.,0.));
#362=DIRECTION('center_axis',(0.,0.,-1.));
#363=DIRECTION('ref_axis',(-1.,0.,0.));
#364=DIRECTION('center_axis',(0.,0.,1.));
#365=DIRECTION('ref_axis',(1.,0.,0.));
#366=DIRECTION('center_axis',(0.,0.,1.));
#367=DIRECTION('ref_axis',(0.,-1.,0.));
#368=DIRECTION('center_axis',(0.,0.,1.));
#369=DIRECTION('ref_axis',(1.,0.,0.));
#370=DIRECTION('center_axis',(0.,0.,-1.));
#371=DIRECTION('ref_axis',(0.,-1.,0.));
#372=DIRECTION('center_axis',(0.,0.,1.));
#373=DIRECTION('ref_axis',(1.,0.,0.));
#374=DIRECTION($,(-0.923879532511287,-0.38268343236509,0.));
#375=DIRECTION($,(-0.38268343236509,-0.923879532511287,0.));
#376=DIRECTION($,(0.38268343236509,-0.923879532511287,0.));
#377=DIRECTION($,(0.923879532511287,-0.38268343236509,0.));
#378=DIRECTION($,(0.923879532511287,0.38268343236509,0.));
#379=DIRECTION($,(0.38268343236509,0.923879532511287,0.));
#380=DIRECTION($,(-0.38268343236509,0.923879532511287,0.));
#381=DIRECTION($,(-0.923879532511287,0.38268343236509,0.));
#382=DIRECTION('center_axis',(0.,0.,1.));
#383=DIRECTION('ref_axis',(0.,-1.,0.));
#384=DIRECTION('center_axis',(0.38268343236509,0.923879532511287,0.));
#385=DIRECTION('ref_axis',(-0.923879532511287,0.38268343236509,0.));
#386=DIRECTION($,(-0.923879532511287,0.38268343236509,0.));
#387=DIRECTION($,(0.,0.,1.));
#388=DIRECTION($,(0.,0.,1.));
#389=DIRECTION('center_axis',(0.923879532511287,0.38268343236509,0.));
#390=DIRECTION('ref_axis',(-0.38268343236509,0.923879532511287,0.));
#391=DIRECTION($,(-0.38268343236509,0.923879532511287,0.));
#392=DIRECTION($,(0.,0.,1.));
#393=DIRECTION('center_axis',(0.923879532511287,-0.38268343236509,0.));
#394=DIRECTION('ref_axis',(0.38268343236509,0.923879532511287,0.));
#395=DIRECTION($,(0.38268343236509,0.923879532511287,0.));
#396=DIRECTION($,(0.,0.,1.));
#397=DIRECTION('center_axis',(0.38268343236509,-0.923879532511287,0.));
#398=DIRECTION('ref_axis',(0.923879532511287,0.38268343236509,0.));
#399=DIRECTION($,(0.923879532511287,0.38268343236509,0.));
#400=DIRECTION($,(0.,0.,1.));
#401=DIRECTION('center_axis',(-0.38268343236509,-0.923879532511287,0.));
#402=DIRECTION('ref_axis',(0.923879532511287,-0.38268343236509,0.));
#403=DIRECTION($,(0.923879532511287,-0.38268343236509,0.));
#404=DIRECTION($,(0.,0.,1.));
#405=DIRECTION('center_axis',(-0.923879532511287,-0.38268343236509,0.));
#406=DIRECTION('ref_axis',(0.38268343236509,-0.923879532511287,0.));
#407=DIRECTION($,(0.38268343236509,-0.923879532511287,0.));
#408=DIRECTION($,(0.,0.,1.));
#409=DIRECTION('center_axis',(-0.923879532511287,0.38268343236509,0.));
#410=DIRECTION('ref_axis',(-0.38268343236509,-0.923879532511287,0.));
#411=DIRECTION($,(-0.38268343236509,-0.923879532511287,0.));
#412=DIRECTION($,(0.,0.,1.));
#413=DIRECTION('center_axis',(-0.38268343236509,0.923879532511287,0.));
#414=DIRECTION('ref_axis',(-0.923879532511287,-0.38268343236509,0.));
#415=DIRECTION($,(-0.923879532511287,-0.38268343236509,0.));
#416=DIRECTION('center_axis',(0.,0.,-1.));
#417=DIRECTION('ref_axis',(-1.,0.,0.));
#418=DIRECTION('center_axis',(0.,0.,1.));
#419=DIRECTION('ref_axis',(0.,-1.,0.));
#420=DIRECTION('center_axis',(0.,0.,1.));
#421=DIRECTION('ref_axis',(0.,-1.,0.));
#422=DIRECTION('center_axis',(0.,0.,1.));
#423=DIRECTION('ref_axis',(0.,-1.,0.));
#424=DIRECTION('center_axis',(0.,0.,1.));
#425=DIRECTION('ref_axis',(0.,-1.,0.));
#426=DIRECTION('center_axis',(0.,0.,-1.));
#427=DIRECTION('ref_axis',(-1.,0.,0.));
#428=DIRECTION('center_axis',(0.,0.,1.));
#429=DIRECTION('ref_axis',(0.,-1.,0.));
#430=DIRECTION('center_axis',(0.,0.,1.));
#431=DIRECTION('ref_axis',(0.,-1.,0.));
#432=DIRECTION('center_axis',(0.,0.,1.));
#433=DIRECTION('ref_axis',(1.,0.,0.));
#434=DIRECTION('center_axis',(0.,0.,1.));
#435=DIRECTION('ref_axis',(0.,-1.,0.));
#436=DIRECTION('center_axis',(0.,0.,1.));
#437=DIRECTION('ref_axis',(0.,-1.,0.));
#438=DIRECTION('center_axis',(0.,0.,1.));
#439=DIRECTION('ref_axis',(0.,-1.,0.));
#440=DIRECTION('center_axis',(0.,0.,1.));
#441=DIRECTION('ref_axis',(0.,-1.,0.));
#442=DIRECTION('center_axis',(0.,0.,-1.));
#443=DIRECTION('ref_axis',(-1.,0.,0.));
#444=DIRECTION('center_axis',(0.,0.,1.));
#445=DIRECTION('ref_axis',(0.,-1.,0.));
#446=DIRECTION('center_axis',(0.,0.,1.));
#447=DIRECTION('ref_axis',(0.,-1.,0.));
#448=CARTESIAN_POINT('',(0.,0.,0.));
#449=CARTESIAN_POINT('Origin',(0.,0.,45.));
#450=CARTESIAN_POINT('',(21.1,2.58400474620092E-015,43.));
#451=CARTESIAN_POINT('Origin',(0.,0.,43.));
#452=CARTESIAN_POINT('',(21.1,2.58400474620092E-015,45.));
#453=CARTESIAN_POINT('Origin',(0.,0.,45.));
#454=CARTESIAN_POINT('Origin',(-9.16896461630586E-016,-3.50781366390255E-016,
43.));
#455=CARTESIAN_POINT('',(19.,2.32682891837997E-015,43.));
#456=CARTESIAN_POINT('Origin',(0.,0.,43.));
#457=CARTESIAN_POINT('Origin',(-3.18349188131306E-016,6.36698376262612E-016,
45.));
#458=CARTESIAN_POINT('',(2.74596428538815E-015,22.4225,45.));
#459=CARTESIAN_POINT('Origin',(0.,0.,45.));
#460=CARTESIAN_POINT('Origin',(-3.18349188131306E-016,6.36698376262612E-016,
45.));
#461=CARTESIAN_POINT('',(0.,34.1741790337932,45.));
#462=CARTESIAN_POINT('',(-24.1647937362783,24.1647937362783,45.));
#463=CARTESIAN_POINT($,(0.,34.1741790337932,45.));
#464=CARTESIAN_POINT('',(-34.1741790337932,0.,45.));
#465=CARTESIAN_POINT($,(-24.1647937362783,24.1647937362783,45.));
#466=CARTESIAN_POINT('',(-24.1647937362783,-24.1647937362783,45.));
#467=CARTESIAN_POINT($,(-34.1741790337932,0.,45.));
#468=CARTESIAN_POINT('',(-2.09256494836117E-015,-34.1741790337932,45.));
#469=CARTESIAN_POINT($,(-24.1647937362783,-24.1647937362783,45.));
#470=CARTESIAN_POINT('',(24.1647937362783,-24.1647937362783,45.));
#471=CARTESIAN_POINT($,(-2.09256494836117E-015,-34.1741790337932,45.));
#472=CARTESIAN_POINT('',(34.1741790337932,-4.44089209850063E-015,45.));
#473=CARTESIAN_POINT($,(24.1647937362783,-24.1647937362783,45.));
#474=CARTESIAN_POINT('',(24.1647937362783,24.1647937362783,45.));
#475=CARTESIAN_POINT($,(34.1741790337932,-4.18512989672234E-015,45.));
#476=CARTESIAN_POINT($,(24.1647937362783,24.1647937362783,45.));
#477=CARTESIAN_POINT('',(-3.73517273739943E-015,30.5,45.));
#478=CARTESIAN_POINT('Origin',(0.,0.,45.));
#479=CARTESIAN_POINT('Origin',(24.1647937362783,24.1647937362783,31.));
#480=CARTESIAN_POINT('',(24.1647937362783,24.1647937362783,31.));
#481=CARTESIAN_POINT('',(0.,34.1741790337932,31.));
#482=CARTESIAN_POINT($,(24.1647937362783,24.1647937362783,31.));
#483=CARTESIAN_POINT($,(0.,34.1741790337932,31.));
#484=CARTESIAN_POINT($,(24.1647937362783,24.1647937362783,31.));
#485=CARTESIAN_POINT('Origin',(34.1741790337932,-4.18512989672234E-015,
31.));
#486=CARTESIAN_POINT('',(34.1741790337932,-4.18512989672234E-015,31.));
#487=CARTESIAN_POINT($,(34.1741790337932,-4.18512989672234E-015,31.));
#488=CARTESIAN_POINT($,(34.1741790337932,-4.18512989672234E-015,31.));
#489=CARTESIAN_POINT('Origin',(24.1647937362783,-24.1647937362783,31.));
#490=CARTESIAN_POINT('',(24.1647937362783,-24.1647937362783,31.));
#491=CARTESIAN_POINT($,(24.1647937362783,-24.1647937362783,31.));
#492=CARTESIAN_POINT($,(24.1647937362783,-24.1647937362783,31.));
#493=CARTESIAN_POINT('Origin',(-2.09256494836117E-015,-34.1741790337932,
31.));
#494=CARTESIAN_POINT('',(-2.09256494836117E-015,-34.1741790337932,31.));
#495=CARTESIAN_POINT($,(-2.09256494836117E-015,-34.1741790337932,31.));
#496=CARTESIAN_POINT($,(-2.09256494836117E-015,-34.1741790337932,31.));
#497=CARTESIAN_POINT('Origin',(-24.1647937362783,-24.1647937362783,31.));
#498=CARTESIAN_POINT('',(-24.1647937362783,-24.1647937362783,31.));
#499=CARTESIAN_POINT($,(-24.1647937362783,-24.1647937362783,31.));
#500=CARTESIAN_POINT($,(-24.1647937362783,-24.1647937362783,31.));
#501=CARTESIAN_POINT('Origin',(-34.1741790337932,0.,31.));
#502=CARTESIAN_POINT('',(-34.1741790337932,0.,31.));
#503=CARTESIAN_POINT($,(-34.1741790337932,0.,31.));
#504=CARTESIAN_POINT($,(-34.1741790337932,0.,31.));
#505=CARTESIAN_POINT('Origin',(-24.1647937362783,24.1647937362783,31.));
#506=CARTESIAN_POINT('',(-24.1647937362783,24.1647937362783,31.));
#507=CARTESIAN_POINT($,(-24.1647937362783,24.1647937362783,31.));
#508=CARTESIAN_POINT($,(-24.1647937362783,24.1647937362783,31.));
#509=CARTESIAN_POINT('Origin',(0.,34.1741790337932,31.));
#510=CARTESIAN_POINT($,(0.,34.1741790337932,31.));
#511=CARTESIAN_POINT('Origin',(0.,-22.5,0.));
#512=CARTESIAN_POINT('',(0.,-25.,0.));
#513=CARTESIAN_POINT('Origin',(0.,0.,0.));
#514=CARTESIAN_POINT('',(0.,-20.,0.));
#515=CARTESIAN_POINT('Origin',(0.,0.,0.));
#516=CARTESIAN_POINT('Origin',(0.,0.,15.5));
#517=CARTESIAN_POINT('',(0.,-25.,31.));
#518=CARTESIAN_POINT('Origin',(0.,0.,31.));
#519=CARTESIAN_POINT('Origin',(0.,-27.75,31.));
#520=CARTESIAN_POINT('Origin',(0.,0.,55.));
#521=CARTESIAN_POINT('',(0.,-30.5,71.5));
#522=CARTESIAN_POINT('Origin',(0.,0.,71.5));
#523=CARTESIAN_POINT('Origin',(0.,-26.46125,71.5));
#524=CARTESIAN_POINT('',(0.,-22.4225,71.5));
#525=CARTESIAN_POINT('Origin',(0.,0.,71.5));
#526=CARTESIAN_POINT('Origin',(0.,0.,56.));
#527=CARTESIAN_POINT('Origin',(0.,0.,32.35));
#528=CARTESIAN_POINT('',(0.,-19.,26.2));
#529=CARTESIAN_POINT('Origin',(0.,0.,26.2));
#530=CARTESIAN_POINT('Origin',(0.,-19.5,26.2));
#531=CARTESIAN_POINT('',(0.,-20.,26.2));
#532=CARTESIAN_POINT('Origin',(0.,0.,26.2));
#533=CARTESIAN_POINT('Origin',(0.,0.,13.1));
#534=UNCERTAINTY_MEASURE_WITH_UNIT(LENGTH_MEASURE(0.01),#536,
'DISTANCE_ACCURACY_VALUE',
'Maximum model space distance between geometric entities at asserted c
onnectivities');
#535=(
GEOMETRIC_REPRESENTATION_CONTEXT(3)
GLOBAL_UNCERTAINTY_ASSIGNED_CONTEXT((#534))
GLOBAL_UNIT_ASSIGNED_CONTEXT((#536,#539,#537))
REPRESENTATION_CONTEXT('','3D')
);
#536=(
LENGTH_UNIT()
NAMED_UNIT(*)
SI_UNIT(.MILLI.,.METRE.)
);
#537=(
NAMED_UNIT(*)
SI_UNIT($,.STERADIAN.)
SOLID_ANGLE_UNIT()
);
#538=DIMENSIONAL_EXPONENTS(0.,0.,0.,0.,0.,0.,0.);
#539=(
CONVERSION_BASED_UNIT('degree',#541)
NAMED_UNIT(#538)
PLANE_ANGLE_UNIT()
);
#540=(
NAMED_UNIT(*)
PLANE_ANGLE_UNIT()
SI_UNIT($,.RADIAN.)
);
#541=PLANE_ANGLE_MEASURE_WITH_UNIT(PLANE_ANGLE_MEASURE(0.01745329252),#540);
#542=SHAPE_DEFINITION_REPRESENTATION(#543,#544);
#543=PRODUCT_DEFINITION_SHAPE('',$,#546);
#544=SHAPE_REPRESENTATION('',(#322),#535);
#545=PRODUCT_DEFINITION_CONTEXT('3D Mechanical Parts',#549,'design');
#546=PRODUCT_DEFINITION('DIFV050040112','DIFV050040112',#547,#545);
#547=PRODUCT_DEFINITION_FORMATION('',$,#551);
#548=APPLICATION_PROTOCOL_DEFINITION('international standard',
'automotive_design',2009,#549);
#549=APPLICATION_CONTEXT(
'Core Data for Automotive Mechanical Design Process');
#550=PRODUCT_CONTEXT('3D Mechanical Parts',#549,'mechanical');
#551=PRODUCT('DIFV050040112','DIFV050040112',$,(#550));
#552=PRESENTATION_STYLE_ASSIGNMENT((#554));
#553=PRESENTATION_STYLE_ASSIGNMENT((#555));
#554=SURFACE_STYLE_USAGE(.BOTH.,#556);
#555=SURFACE_STYLE_USAGE(.BOTH.,#557);
#556=SURFACE_SIDE_STYLE($,(#558));
#557=SURFACE_SIDE_STYLE($,(#559));
#558=SURFACE_STYLE_FILL_AREA(#560);
#559=SURFACE_STYLE_FILL_AREA(#561);
#560=FILL_AREA_STYLE($,(#562));
#561=FILL_AREA_STYLE($,(#563));
#562=FILL_AREA_STYLE_COLOUR($,#564);
#563=FILL_AREA_STYLE_COLOUR($,#565);
#564=COLOUR_RGB('',0.509803921568627,0.509803921568627,0.588235294117647);
#565=COLOUR_RGB('',1.,0.,0.);
ENDSEC;
END-ISO-10303-21;
