ISO-10303-21;
HEADER;
/* Generated by software containing ST-Developer
 * from STEP Tools, Inc. (www.steptools.com) 
 */

FILE_DESCRIPTION(
/* description */ (''),
/* implementation_level */ '2;1');

FILE_NAME(
/* name */ 
'Q:\\Ric010\\FF7\\FIPlastiCAD\\FIP\\Lavoro\\PVC Fittings\\PVC Fittings
 STEP\\TIFV\\TIFV063012.ipt.stp',
/* time_stamp */ '2013-10-01T14:55:24+02:00',
/* author */ ('bfaro'),
/* organization */ (''),
/* preprocessor_version */ 'ST-DEVELOPER v15.2',
/* originating_system */ 'Autodesk Inventor 2014',
/* authorisation */ '');

FILE_SCHEMA (('AUTOMOTIVE_DESIGN { 1 0 10303 214 3 1 1 }'));
ENDSEC;

DATA;
#10=SHAPE_REPRESENTATION_RELATIONSHIP('SRR','None',#429,#11);
#11=ADVANCED_BREP_SHAPE_REPRESENTATION($,(#187),#420);
#12=PLANE($,#208);
#13=PLANE($,#209);
#14=PLANE($,#210);
#15=PLANE($,#211);
#16=PLANE($,#212);
#17=PLANE($,#213);
#18=STYLED_ITEM($,(#438),#177);
#19=STYLED_ITEM($,(#437),#187);
#20=B_SPLINE_CURVE_WITH_KNOTS($,3,(#282,#283,#284,#285,#286,#287,#288,#289,
#290,#291,#292,#293,#294,#295,#296,#297,#298,#299,#300,#301,#302,#303,#304,
#305,#306,#307,#308,#309,#310,#311,#312,#313,#314,#315),.UNSPECIFIED.,.F.,
 .F.,(4,2,2,2,2,2,2,2,2,2,2,2,2,2,2,2,4),(2.7611618458194,3.10593852843618,
3.45071521105297,3.79549189366976,4.14026857628654,4.48578235512461,4.83129613396267,
5.17680991280073,5.5223236916388,5.86783747047686,6.21335124931493,6.55886502815299,
6.90437880699106,7.24915548960784,7.59393217222463,7.93870885484141,8.2834855374582),
 .UNSPECIFIED.);
#21=B_SPLINE_CURVE_WITH_KNOTS($,3,(#317,#318,#319,#320,#321,#322,#323,#324,
#325,#326,#327,#328,#329,#330,#331,#332,#333,#334),.UNSPECIFIED.,.F.,.F.,
(4,2,2,2,2,2,2,2,4),(-2.7611618458194,-2.41638516320261,-2.07160848058583,
-1.72683179796904,-1.38205511535226,-1.03654133651419,-0.691027557676129,
-0.345513778838064,0.),.UNSPECIFIED.);
#22=B_SPLINE_CURVE_WITH_KNOTS($,3,(#335,#336,#337,#338,#339,#340,#341,#342,
#343,#344,#345,#346,#347,#348,#349,#350,#351,#352),.UNSPECIFIED.,.F.,.F.,
(4,2,2,2,2,2,2,2,4),(-11.0446473832776,-10.6991336044395,-10.3536198256015,
-10.0081060467634,-9.66259226792534,-9.31781558530855,-8.97303890269177,
-8.62826222007498,-8.2834855374582),.UNSPECIFIED.);
#23=B_SPLINE_CURVE_WITH_KNOTS($,3,(#360,#361,#362,#363,#364,#365,#366,#367,
#368,#369,#370,#371,#372,#373,#374,#375,#376,#377,#378),.UNSPECIFIED.,.F.,
 .F.,(4,2,2,2,3,2,2,2,4),(3.41298683676563,3.69736003573463,3.98173323470364,
4.26619117519557,4.55064911568751,4.83510705617945,5.11956499667139,5.40393819564039,
5.68831139460939),.UNSPECIFIED.);
#24=B_SPLINE_CURVE_WITH_KNOTS($,3,(#380,#381,#382,#383,#384,#385,#386,#387,
#388,#389),.UNSPECIFIED.,.F.,.F.,(4,2,2,2,4),(-2.27532455784376,-1.99086661735182,
-1.70640867685988,-1.42203547789088,-1.13766227892188),.UNSPECIFIED.);
#25=B_SPLINE_CURVE_WITH_KNOTS($,3,(#390,#391,#392,#393,#394,#395,#396,#397,
#398,#399),.UNSPECIFIED.,.F.,.F.,(4,2,2,2,4),(-3.41298683676563,-3.12861363779663,
-2.84424043882763,-2.55978249833569,-2.27532455784376),.UNSPECIFIED.);
#26=FACE_BOUND($,#55,.T.);
#27=FACE_BOUND($,#57,.T.);
#28=FACE_BOUND($,#59,.T.);
#29=FACE_BOUND($,#60,.T.);
#30=FACE_BOUND($,#62,.T.);
#31=FACE_BOUND($,#63,.T.);
#32=FACE_BOUND($,#65,.T.);
#33=FACE_BOUND($,#67,.T.);
#34=FACE_BOUND($,#69,.T.);
#35=FACE_BOUND($,#71,.T.);
#36=FACE_BOUND($,#73,.T.);
#37=FACE_BOUND($,#75,.T.);
#38=FACE_BOUND($,#77,.T.);
#39=FACE_BOUND($,#79,.T.);
#40=FACE_BOUND($,#81,.T.);
#41=FACE_OUTER_BOUND($,#54,.T.);
#42=FACE_OUTER_BOUND($,#56,.T.);
#43=FACE_OUTER_BOUND($,#58,.T.);
#44=FACE_OUTER_BOUND($,#61,.T.);
#45=FACE_OUTER_BOUND($,#64,.T.);
#46=FACE_OUTER_BOUND($,#66,.T.);
#47=FACE_OUTER_BOUND($,#68,.T.);
#48=FACE_OUTER_BOUND($,#70,.T.);
#49=FACE_OUTER_BOUND($,#72,.T.);
#50=FACE_OUTER_BOUND($,#74,.T.);
#51=FACE_OUTER_BOUND($,#76,.T.);
#52=FACE_OUTER_BOUND($,#78,.T.);
#53=FACE_OUTER_BOUND($,#80,.T.);
#54=EDGE_LOOP($,(#130));
#55=EDGE_LOOP($,(#131));
#56=EDGE_LOOP($,(#132));
#57=EDGE_LOOP($,(#133));
#58=EDGE_LOOP($,(#134));
#59=EDGE_LOOP($,(#135,#136,#137));
#60=EDGE_LOOP($,(#138));
#61=EDGE_LOOP($,(#139));
#62=EDGE_LOOP($,(#140,#141,#142));
#63=EDGE_LOOP($,(#143));
#64=EDGE_LOOP($,(#144));
#65=EDGE_LOOP($,(#145));
#66=EDGE_LOOP($,(#146,#147,#148));
#67=EDGE_LOOP($,(#149));
#68=EDGE_LOOP($,(#150,#151,#152));
#69=EDGE_LOOP($,(#153));
#70=EDGE_LOOP($,(#154));
#71=EDGE_LOOP($,(#155));
#72=EDGE_LOOP($,(#156));
#73=EDGE_LOOP($,(#157));
#74=EDGE_LOOP($,(#158));
#75=EDGE_LOOP($,(#159));
#76=EDGE_LOOP($,(#160));
#77=EDGE_LOOP($,(#161));
#78=EDGE_LOOP($,(#162));
#79=EDGE_LOOP($,(#163));
#80=EDGE_LOOP($,(#164));
#81=EDGE_LOOP($,(#165));
#82=CIRCLE($,#190,31.5);
#83=CIRCLE($,#191,31.5);
#84=CIRCLE($,#193,31.5);
#85=CIRCLE($,#194,31.5);
#86=CIRCLE($,#196,38.);
#87=CIRCLE($,#197,38.);
#88=CIRCLE($,#199,25.);
#89=CIRCLE($,#200,25.);
#90=CIRCLE($,#202,9.3);
#91=CIRCLE($,#203,9.3);
#92=CIRCLE($,#205,18.);
#93=CIRCLE($,#207,7.5);
#94=VERTEX_POINT($,#268);
#95=VERTEX_POINT($,#270);
#96=VERTEX_POINT($,#273);
#97=VERTEX_POINT($,#275);
#98=VERTEX_POINT($,#278);
#99=VERTEX_POINT($,#280);
#100=VERTEX_POINT($,#281);
#101=VERTEX_POINT($,#316);
#102=VERTEX_POINT($,#353);
#103=VERTEX_POINT($,#356);
#104=VERTEX_POINT($,#358);
#105=VERTEX_POINT($,#359);
#106=VERTEX_POINT($,#379);
#107=VERTEX_POINT($,#400);
#108=VERTEX_POINT($,#403);
#109=VERTEX_POINT($,#405);
#110=VERTEX_POINT($,#408);
#111=VERTEX_POINT($,#411);
#112=EDGE_CURVE($,#94,#94,#82,.T.);
#113=EDGE_CURVE($,#95,#95,#83,.T.);
#114=EDGE_CURVE($,#96,#96,#84,.T.);
#115=EDGE_CURVE($,#97,#97,#85,.T.);
#116=EDGE_CURVE($,#98,#98,#86,.T.);
#117=EDGE_CURVE($,#99,#100,#20,.T.);
#118=EDGE_CURVE($,#100,#101,#21,.T.);
#119=EDGE_CURVE($,#101,#99,#22,.T.);
#120=EDGE_CURVE($,#102,#102,#87,.T.);
#121=EDGE_CURVE($,#103,#103,#88,.T.);
#122=EDGE_CURVE($,#104,#105,#23,.T.);
#123=EDGE_CURVE($,#106,#104,#24,.T.);
#124=EDGE_CURVE($,#105,#106,#25,.T.);
#125=EDGE_CURVE($,#107,#107,#89,.T.);
#126=EDGE_CURVE($,#108,#108,#90,.T.);
#127=EDGE_CURVE($,#109,#109,#91,.T.);
#128=EDGE_CURVE($,#110,#110,#92,.T.);
#129=EDGE_CURVE($,#111,#111,#93,.T.);
#130=ORIENTED_EDGE($,*,*,#112,.F.);
#131=ORIENTED_EDGE($,*,*,#113,.T.);
#132=ORIENTED_EDGE($,*,*,#114,.F.);
#133=ORIENTED_EDGE($,*,*,#115,.T.);
#134=ORIENTED_EDGE($,*,*,#116,.T.);
#135=ORIENTED_EDGE($,*,*,#117,.T.);
#136=ORIENTED_EDGE($,*,*,#118,.T.);
#137=ORIENTED_EDGE($,*,*,#119,.T.);
#138=ORIENTED_EDGE($,*,*,#120,.F.);
#139=ORIENTED_EDGE($,*,*,#121,.F.);
#140=ORIENTED_EDGE($,*,*,#122,.F.);
#141=ORIENTED_EDGE($,*,*,#123,.F.);
#142=ORIENTED_EDGE($,*,*,#124,.F.);
#143=ORIENTED_EDGE($,*,*,#125,.T.);
#144=ORIENTED_EDGE($,*,*,#126,.T.);
#145=ORIENTED_EDGE($,*,*,#127,.T.);
#146=ORIENTED_EDGE($,*,*,#119,.F.);
#147=ORIENTED_EDGE($,*,*,#118,.F.);
#148=ORIENTED_EDGE($,*,*,#117,.F.);
#149=ORIENTED_EDGE($,*,*,#128,.F.);
#150=ORIENTED_EDGE($,*,*,#124,.T.);
#151=ORIENTED_EDGE($,*,*,#123,.T.);
#152=ORIENTED_EDGE($,*,*,#122,.T.);
#153=ORIENTED_EDGE($,*,*,#129,.F.);
#154=ORIENTED_EDGE($,*,*,#126,.F.);
#155=ORIENTED_EDGE($,*,*,#129,.T.);
#156=ORIENTED_EDGE($,*,*,#128,.T.);
#157=ORIENTED_EDGE($,*,*,#127,.F.);
#158=ORIENTED_EDGE($,*,*,#120,.T.);
#159=ORIENTED_EDGE($,*,*,#115,.F.);
#160=ORIENTED_EDGE($,*,*,#114,.T.);
#161=ORIENTED_EDGE($,*,*,#125,.F.);
#162=ORIENTED_EDGE($,*,*,#113,.F.);
#163=ORIENTED_EDGE($,*,*,#121,.T.);
#164=ORIENTED_EDGE($,*,*,#116,.F.);
#165=ORIENTED_EDGE($,*,*,#112,.T.);
#166=CYLINDRICAL_SURFACE($,#189,31.5);
#167=CYLINDRICAL_SURFACE($,#192,31.5);
#168=CYLINDRICAL_SURFACE($,#195,38.);
#169=CYLINDRICAL_SURFACE($,#198,25.);
#170=CYLINDRICAL_SURFACE($,#201,9.3);
#171=CYLINDRICAL_SURFACE($,#204,18.);
#172=CYLINDRICAL_SURFACE($,#206,7.5);
#173=ADVANCED_FACE($,(#41,#26),#166,.F.);
#174=ADVANCED_FACE($,(#42,#27),#167,.F.);
#175=ADVANCED_FACE($,(#43,#28,#29),#168,.T.);
#176=ADVANCED_FACE($,(#44,#30,#31),#169,.F.);
#177=ADVANCED_FACE($,(#45,#32),#170,.F.);
#178=ADVANCED_FACE($,(#46,#33),#171,.T.);
#179=ADVANCED_FACE($,(#47,#34),#172,.F.);
#180=ADVANCED_FACE($,(#48,#35),#12,.T.);
#181=ADVANCED_FACE($,(#49,#36),#13,.T.);
#182=ADVANCED_FACE($,(#50,#37),#14,.T.);
#183=ADVANCED_FACE($,(#51,#38),#15,.T.);
#184=ADVANCED_FACE($,(#52,#39),#16,.T.);
#185=ADVANCED_FACE($,(#53,#40),#17,.T.);
#186=CLOSED_SHELL($,(#173,#174,#175,#176,#177,#178,#179,#180,#181,#182,
#183,#184,#185));
#187=MANIFOLD_SOLID_BREP('108',#186);
#188=AXIS2_PLACEMENT_3D('placement',#266,#214,#215);
#189=AXIS2_PLACEMENT_3D($,#267,#216,#217);
#190=AXIS2_PLACEMENT_3D($,#269,#218,#219);
#191=AXIS2_PLACEMENT_3D($,#271,#220,#221);
#192=AXIS2_PLACEMENT_3D($,#272,#222,#223);
#193=AXIS2_PLACEMENT_3D($,#274,#224,#225);
#194=AXIS2_PLACEMENT_3D($,#276,#226,#227);
#195=AXIS2_PLACEMENT_3D($,#277,#228,#229);
#196=AXIS2_PLACEMENT_3D($,#279,#230,#231);
#197=AXIS2_PLACEMENT_3D($,#354,#232,#233);
#198=AXIS2_PLACEMENT_3D($,#355,#234,#235);
#199=AXIS2_PLACEMENT_3D($,#357,#236,#237);
#200=AXIS2_PLACEMENT_3D($,#401,#238,#239);
#201=AXIS2_PLACEMENT_3D($,#402,#240,#241);
#202=AXIS2_PLACEMENT_3D($,#404,#242,#243);
#203=AXIS2_PLACEMENT_3D($,#406,#244,#245);
#204=AXIS2_PLACEMENT_3D($,#407,#246,#247);
#205=AXIS2_PLACEMENT_3D($,#409,#248,#249);
#206=AXIS2_PLACEMENT_3D($,#410,#250,#251);
#207=AXIS2_PLACEMENT_3D($,#412,#252,#253);
#208=AXIS2_PLACEMENT_3D($,#413,#254,#255);
#209=AXIS2_PLACEMENT_3D($,#414,#256,#257);
#210=AXIS2_PLACEMENT_3D($,#415,#258,#259);
#211=AXIS2_PLACEMENT_3D($,#416,#260,#261);
#212=AXIS2_PLACEMENT_3D($,#417,#262,#263);
#213=AXIS2_PLACEMENT_3D($,#418,#264,#265);
#214=DIRECTION('axis',(0.,0.,1.));
#215=DIRECTION('refdir',(1.,0.,0.));
#216=DIRECTION('center_axis',(-1.,1.426139E-033,-7.763797E-018));
#217=DIRECTION('ref_axis',(7.763797E-018,-1.1072253689783E-050,-1.));
#218=DIRECTION('center_axis',(-1.,0.,0.));
#219=DIRECTION('ref_axis',(0.,0.,-1.));
#220=DIRECTION('center_axis',(-1.,0.,0.));
#221=DIRECTION('ref_axis',(0.,0.,-1.));
#222=DIRECTION('center_axis',(-1.,1.426139E-033,-7.763797E-018));
#223=DIRECTION('ref_axis',(7.763797E-018,-1.1072253689783E-050,-1.));
#224=DIRECTION('center_axis',(-1.,0.,0.));
#225=DIRECTION('ref_axis',(0.,0.,-1.));
#226=DIRECTION('center_axis',(-1.,0.,0.));
#227=DIRECTION('ref_axis',(0.,0.,-1.));
#228=DIRECTION('center_axis',(-1.,1.426139E-033,-7.763797E-018));
#229=DIRECTION('ref_axis',(7.763797E-018,-1.1072253689783E-050,-1.));
#230=DIRECTION('center_axis',(-1.,0.,0.));
#231=DIRECTION('ref_axis',(0.,0.,-1.));
#232=DIRECTION('center_axis',(-1.,0.,0.));
#233=DIRECTION('ref_axis',(0.,0.,-1.));
#234=DIRECTION('center_axis',(-1.,1.426139E-033,-7.763797E-018));
#235=DIRECTION('ref_axis',(7.763797E-018,-1.1072253689783E-050,-1.));
#236=DIRECTION('center_axis',(-1.,0.,0.));
#237=DIRECTION('ref_axis',(0.,0.,-1.));
#238=DIRECTION('center_axis',(-1.,0.,0.));
#239=DIRECTION('ref_axis',(0.,0.,-1.));
#240=DIRECTION('center_axis',(0.,-1.83691E-016,1.));
#241=DIRECTION('ref_axis',(-1.,0.,0.));
#242=DIRECTION('center_axis',(0.,0.,-1.));
#243=DIRECTION('ref_axis',(-1.,0.,0.));
#244=DIRECTION('center_axis',(0.,0.,1.));
#245=DIRECTION('ref_axis',(-1.,0.,0.));
#246=DIRECTION('center_axis',(0.,-1.83691E-016,1.));
#247=DIRECTION('ref_axis',(-1.,0.,0.));
#248=DIRECTION('center_axis',(0.,0.,1.));
#249=DIRECTION('ref_axis',(-1.,0.,0.));
#250=DIRECTION('center_axis',(0.,-1.83691E-016,1.));
#251=DIRECTION('ref_axis',(-1.,0.,0.));
#252=DIRECTION('center_axis',(0.,0.,-1.));
#253=DIRECTION('ref_axis',(-1.,0.,0.));
#254=DIRECTION('center_axis',(0.,0.,1.));
#255=DIRECTION('ref_axis',(0.,-1.,0.));
#256=DIRECTION('center_axis',(0.,0.,1.));
#257=DIRECTION('ref_axis',(0.,-1.,0.));
#258=DIRECTION('center_axis',(-1.,0.,0.));
#259=DIRECTION('ref_axis',(0.,-1.,0.));
#260=DIRECTION('center_axis',(-1.,0.,0.));
#261=DIRECTION('ref_axis',(0.,-1.,0.));
#262=DIRECTION('center_axis',(1.,0.,0.));
#263=DIRECTION('ref_axis',(0.,1.,0.));
#264=DIRECTION('center_axis',(1.,0.,0.));
#265=DIRECTION('ref_axis',(0.,1.,0.));
#266=CARTESIAN_POINT('',(0.,0.,0.));
#267=CARTESIAN_POINT('Origin',(86.,0.,0.));
#268=CARTESIAN_POINT('',(105.,-1.928755E-015,31.5));
#269=CARTESIAN_POINT('Origin',(105.,0.,0.));
#270=CARTESIAN_POINT('',(67.,-1.928755E-015,31.5));
#271=CARTESIAN_POINT('Origin',(67.,0.,0.));
#272=CARTESIAN_POINT('Origin',(-19.,0.,0.));
#273=CARTESIAN_POINT('',(0.,-1.928755E-015,31.5));
#274=CARTESIAN_POINT('Origin',(0.,0.,0.));
#275=CARTESIAN_POINT('',(-38.,-1.928755E-015,31.5));
#276=CARTESIAN_POINT('Origin',(-38.,0.,0.));
#277=CARTESIAN_POINT('Origin',(33.5,0.,0.));
#278=CARTESIAN_POINT('',(105.,-2.326752E-015,38.));
#279=CARTESIAN_POINT('Origin',(105.,0.,0.));
#280=CARTESIAN_POINT('',(51.5,-7.082466E-015,38.));
#281=CARTESIAN_POINT('',(15.5,-1.173733E-014,38.));
#282=CARTESIAN_POINT('Ctrl Pts',(51.5,-1.12410081243297E-014,38.));
#283=CARTESIAN_POINT('Ctrl Pts',(51.5,-1.14925560872263,38.));
#284=CARTESIAN_POINT('Ctrl Pts',(51.3881540756763,-2.33210298376682,37.9465920266253));
#285=CARTESIAN_POINT('Ctrl Pts',(50.9235766281054,-4.67372849462311,37.7298133141175));
#286=CARTESIAN_POINT('Ctrl Pts',(50.5709984262482,-5.83254931553722,37.566575123001));
#287=CARTESIAN_POINT('Ctrl Pts',(49.646580015293,-8.0452200470104,37.1556271834082));
#288=CARTESIAN_POINT('Ctrl Pts',(49.0740026578844,-9.10114526879175,36.9078417684081));
#289=CARTESIAN_POINT('Ctrl Pts',(47.7587899101606,-11.0484077682362,36.3724114544622));
#290=CARTESIAN_POINT('Ctrl Pts',(47.0160518065941,-11.9397923161216,36.085190860057));
#291=CARTESIAN_POINT('Ctrl Pts',(45.4381073777647,-13.517736744951,35.5242653402412));
#292=CARTESIAN_POINT('Ctrl Pts',(44.5458953738593,-14.2607079791066,35.2298582065502));
#293=CARTESIAN_POINT('Ctrl Pts',(42.5989970302694,-15.5752319260829,34.6687590184988));
#294=CARTESIAN_POINT('Ctrl Pts',(41.5442702578903,-16.146955009994,34.4026065401735));
#295=CARTESIAN_POINT('Ctrl Pts',(39.3340835301762,-17.0703792619477,33.9538759897846));
#296=CARTESIAN_POINT('Ctrl Pts',(38.1765187248951,-17.4228140526,33.7715036407082));
#297=CARTESIAN_POINT('Ctrl Pts',(35.835370536524,-17.8877142496727,33.5275794957982));
#298=CARTESIAN_POINT('Ctrl Pts',(34.6517125961269,-18.,33.466401061363));
#299=CARTESIAN_POINT('Ctrl Pts',(32.3482874038731,-18.,33.466401061363));
#300=CARTESIAN_POINT('Ctrl Pts',(31.164629463476,-17.8877142496727,33.5275794957982));
#301=CARTESIAN_POINT('Ctrl Pts',(28.8234812751049,-17.4228140526,33.7715036407082));
#302=CARTESIAN_POINT('Ctrl Pts',(27.6659164698238,-17.0703792619477,33.9538759897846));
#303=CARTESIAN_POINT('Ctrl Pts',(25.4557297421097,-16.146955009994,34.4026065401735));
#304=CARTESIAN_POINT('Ctrl Pts',(24.4010029697306,-15.5752319260829,34.6687590184988));
#305=CARTESIAN_POINT('Ctrl Pts',(22.4541046261407,-14.2607079791066,35.2298582065502));
#306=CARTESIAN_POINT('Ctrl Pts',(21.5618926222353,-13.517736744951,35.5242653402412));
#307=CARTESIAN_POINT('Ctrl Pts',(19.9839481934059,-11.9397923161216,36.085190860057));
#308=CARTESIAN_POINT('Ctrl Pts',(19.2412100898394,-11.0484077682362,36.3724114544622));
#309=CARTESIAN_POINT('Ctrl Pts',(17.9259973421156,-9.10114526879175,36.9078417684081));
#310=CARTESIAN_POINT('Ctrl Pts',(17.353419984707,-8.0452200470104,37.1556271834082));
#311=CARTESIAN_POINT('Ctrl Pts',(16.4290015737518,-5.83254931553722,37.566575123001));
#312=CARTESIAN_POINT('Ctrl Pts',(16.0764233718946,-4.67372849462311,37.7298133141175));
#313=CARTESIAN_POINT('Ctrl Pts',(15.6118459243237,-2.33210298376682,37.9465920266253));
#314=CARTESIAN_POINT('Ctrl Pts',(15.5,-1.14925560872263,38.));
#315=CARTESIAN_POINT('Ctrl Pts',(15.5,-9.57567358739198E-015,38.));
#316=CARTESIAN_POINT('',(33.5,18.,33.466401061363));
#317=CARTESIAN_POINT('Ctrl Pts',(15.5,-1.36696209906972E-014,38.));
#318=CARTESIAN_POINT('Ctrl Pts',(15.5,1.1492556087226,38.));
#319=CARTESIAN_POINT('Ctrl Pts',(15.6118459243237,2.33210298376679,37.9465920266253));
#320=CARTESIAN_POINT('Ctrl Pts',(16.0764233718946,4.67372849462308,37.7298133141175));
#321=CARTESIAN_POINT('Ctrl Pts',(16.4290015737518,5.8325493155372,37.566575123001));
#322=CARTESIAN_POINT('Ctrl Pts',(17.3534199847069,8.04522004701037,37.1556271834082));
#323=CARTESIAN_POINT('Ctrl Pts',(17.9259973421156,9.10114526879173,36.9078417684081));
#324=CARTESIAN_POINT('Ctrl Pts',(19.2412100898394,11.0484077682362,36.3724114544622));
#325=CARTESIAN_POINT('Ctrl Pts',(19.9839481934059,11.9397923161216,36.085190860057));
#326=CARTESIAN_POINT('Ctrl Pts',(21.5618926222353,13.517736744951,35.5242653402412));
#327=CARTESIAN_POINT('Ctrl Pts',(22.4541046261407,14.2607079791066,35.2298582065502));
#328=CARTESIAN_POINT('Ctrl Pts',(24.4010029697306,15.5752319260829,34.6687590184988));
#329=CARTESIAN_POINT('Ctrl Pts',(25.4557297421097,16.146955009994,34.4026065401735));
#330=CARTESIAN_POINT('Ctrl Pts',(27.6659164698238,17.0703792619477,33.9538759897846));
#331=CARTESIAN_POINT('Ctrl Pts',(28.8234812751049,17.4228140526,33.7715036407082));
#332=CARTESIAN_POINT('Ctrl Pts',(31.164629463476,17.8877142496726,33.5275794957982));
#333=CARTESIAN_POINT('Ctrl Pts',(32.3482874038731,18.,33.466401061363));
#334=CARTESIAN_POINT('Ctrl Pts',(33.5,18.,33.466401061363));
#335=CARTESIAN_POINT('Ctrl Pts',(33.5,18.,33.466401061363));
#336=CARTESIAN_POINT('Ctrl Pts',(34.6517125961269,18.,33.466401061363));
#337=CARTESIAN_POINT('Ctrl Pts',(35.835370536524,17.8877142496726,33.5275794957982));
#338=CARTESIAN_POINT('Ctrl Pts',(38.1765187248951,17.4228140526,33.7715036407082));
#339=CARTESIAN_POINT('Ctrl Pts',(39.3340835301762,17.0703792619477,33.9538759897846));
#340=CARTESIAN_POINT('Ctrl Pts',(41.5442702578903,16.146955009994,34.4026065401735));
#341=CARTESIAN_POINT('Ctrl Pts',(42.5989970302694,15.5752319260829,34.6687590184988));
#342=CARTESIAN_POINT('Ctrl Pts',(44.5458953738593,14.2607079791066,35.2298582065502));
#343=CARTESIAN_POINT('Ctrl Pts',(45.4381073777647,13.517736744951,35.5242653402412));
#344=CARTESIAN_POINT('Ctrl Pts',(47.0160518065941,11.9397923161216,36.085190860057));
#345=CARTESIAN_POINT('Ctrl Pts',(47.7587899101606,11.0484077682362,36.3724114544622));
#346=CARTESIAN_POINT('Ctrl Pts',(49.0740026578844,9.10114526879173,36.9078417684081));
#347=CARTESIAN_POINT('Ctrl Pts',(49.646580015293,8.04522004701039,37.1556271834082));
#348=CARTESIAN_POINT('Ctrl Pts',(50.5709984262482,5.83254931553721,37.566575123001));
#349=CARTESIAN_POINT('Ctrl Pts',(50.9235766281054,4.6737284946231,37.7298133141175));
#350=CARTESIAN_POINT('Ctrl Pts',(51.3881540756763,2.3321029837668,37.9465920266253));
#351=CARTESIAN_POINT('Ctrl Pts',(51.5,1.14925560872261,38.));
#352=CARTESIAN_POINT('Ctrl Pts',(51.5,-6.59194920871187E-015,38.));
#353=CARTESIAN_POINT('',(-38.,-2.326752E-015,38.));
#354=CARTESIAN_POINT('Origin',(-38.,0.,0.));
#355=CARTESIAN_POINT('Origin',(33.5,0.,0.));
#356=CARTESIAN_POINT('',(67.,-1.530758E-015,25.));
#357=CARTESIAN_POINT('Origin',(67.,0.,0.));
#358=CARTESIAN_POINT('',(26.,-5.792082E-015,25.));
#359=CARTESIAN_POINT('',(41.,-4.555699E-015,25.));
#360=CARTESIAN_POINT('Ctrl Pts',(26.,-4.78783679369599E-015,25.));
#361=CARTESIAN_POINT('Ctrl Pts',(26.,0.947910663230001,25.));
#362=CARTESIAN_POINT('Ctrl Pts',(26.1906293837233,1.95509429370469,24.9407533346958));
#363=CARTESIAN_POINT('Ctrl Pts',(26.9578777324176,3.80130604751555,24.726779874752));
#364=CARTESIAN_POINT('Ctrl Pts',(27.5341841439945,4.64078586179269,24.5748390653746));
#365=CARTESIAN_POINT('Ctrl Pts',(28.8594115637383,5.96601328153656,24.2871687932254));
#366=CARTESIAN_POINT('Ctrl Pts',(29.6988111557096,6.54216681539413,24.1321239025802));
#367=CARTESIAN_POINT('Ctrl Pts',(31.5447312864294,7.30930229024804,23.9109484764372));
#368=CARTESIAN_POINT('Ctrl Pts',(32.5518068650269,7.5,23.8484800354236));
#369=CARTESIAN_POINT('Ctrl Pts',(33.5,7.5,23.8484800354236));
#370=CARTESIAN_POINT('Ctrl Pts',(34.4481931349731,7.5,23.8484800354236));
#371=CARTESIAN_POINT('Ctrl Pts',(35.4552687135706,7.30930229024804,23.9109484764372));
#372=CARTESIAN_POINT('Ctrl Pts',(37.3011888442904,6.54216681539413,24.1321239025802));
#373=CARTESIAN_POINT('Ctrl Pts',(38.1405884362617,5.96601328153656,24.2871687932254));
#374=CARTESIAN_POINT('Ctrl Pts',(39.4658158560055,4.64078586179269,24.5748390653746));
#375=CARTESIAN_POINT('Ctrl Pts',(40.0421222675824,3.80130604751555,24.726779874752));
#376=CARTESIAN_POINT('Ctrl Pts',(40.8093706162767,1.95509429370469,24.9407533346958));
#377=CARTESIAN_POINT('Ctrl Pts',(41.,0.94791066323,25.));
#378=CARTESIAN_POINT('Ctrl Pts',(41.,-7.0082828429463E-015,25.));
#379=CARTESIAN_POINT('',(33.5,-7.5,23.8484800354236));
#380=CARTESIAN_POINT('Ctrl Pts',(33.5,-7.5,23.8484800354236));
#381=CARTESIAN_POINT('Ctrl Pts',(32.5518068650269,-7.5,23.8484800354236));
#382=CARTESIAN_POINT('Ctrl Pts',(31.5447312864294,-7.30930229024805,23.9109484764372));
#383=CARTESIAN_POINT('Ctrl Pts',(29.6988111557096,-6.54216681539414,24.1321239025802));
#384=CARTESIAN_POINT('Ctrl Pts',(28.8594115637384,-5.96601328153657,24.2871687932254));
#385=CARTESIAN_POINT('Ctrl Pts',(27.5341841439945,-4.64078586179271,24.5748390653746));
#386=CARTESIAN_POINT('Ctrl Pts',(26.9578777324176,-3.80130604751557,24.726779874752));
#387=CARTESIAN_POINT('Ctrl Pts',(26.1906293837233,-1.9550942937047,24.9407533346958));
#388=CARTESIAN_POINT('Ctrl Pts',(26.,-0.947910663230013,25.));
#389=CARTESIAN_POINT('Ctrl Pts',(26.,-6.45317133063372E-015,25.));
#390=CARTESIAN_POINT('Ctrl Pts',(41.,-3.7470027081099E-015,25.));
#391=CARTESIAN_POINT('Ctrl Pts',(41.,-0.947910663230008,25.));
#392=CARTESIAN_POINT('Ctrl Pts',(40.8093706162767,-1.9550942937047,24.9407533346958));
#393=CARTESIAN_POINT('Ctrl Pts',(40.0421222675824,-3.80130604751556,24.726779874752));
#394=CARTESIAN_POINT('Ctrl Pts',(39.4658158560055,-4.6407858617927,24.5748390653746));
#395=CARTESIAN_POINT('Ctrl Pts',(38.1405884362617,-5.96601328153657,24.2871687932254));
#396=CARTESIAN_POINT('Ctrl Pts',(37.3011888442904,-6.54216681539414,24.1321239025802));
#397=CARTESIAN_POINT('Ctrl Pts',(35.4552687135706,-7.30930229024805,23.9109484764372));
#398=CARTESIAN_POINT('Ctrl Pts',(34.4481931349731,-7.5,23.8484800354236));
#399=CARTESIAN_POINT('Ctrl Pts',(33.5,-7.5,23.8484800354236));
#400=CARTESIAN_POINT('',(0.,-1.530758E-015,25.));
#401=CARTESIAN_POINT('Origin',(0.,0.,0.));
#402=CARTESIAN_POINT('Origin',(33.5,-1.065814E-014,45.));
#403=CARTESIAN_POINT('',(40.4814038702828,6.14410286372226,37.5));
#404=CARTESIAN_POINT('Origin',(33.5,-7.105427E-015,37.5));
#405=CARTESIAN_POINT('',(42.8,-1.089694E-014,52.5));
#406=CARTESIAN_POINT('Origin',(33.5,-1.065814E-014,52.5));
#407=CARTESIAN_POINT('Origin',(33.5,-7.105427E-015,26.25));
#408=CARTESIAN_POINT('',(51.5,-9.723023E-015,52.5));
#409=CARTESIAN_POINT('Origin',(33.5,-1.065814E-014,52.5));
#410=CARTESIAN_POINT('Origin',(33.5,-3.552714E-015,18.75));
#411=CARTESIAN_POINT('',(29.1988373664787,6.14410286372226,37.5));
#412=CARTESIAN_POINT('Origin',(33.5,-7.105427E-015,37.5));
#413=CARTESIAN_POINT('Origin',(25.1,-7.105427E-015,37.5));
#414=CARTESIAN_POINT('Origin',(19.85,-1.065814E-014,52.5));
#415=CARTESIAN_POINT('Origin',(-38.,3.552714E-015,-34.75));
#416=CARTESIAN_POINT('Origin',(1.776357E-015,3.552714E-015,-28.25));
#417=CARTESIAN_POINT('Origin',(67.,3.552714E-015,-28.25));
#418=CARTESIAN_POINT('Origin',(105.,3.552714E-015,-34.75));
#419=UNCERTAINTY_MEASURE_WITH_UNIT(LENGTH_MEASURE(0.01),#421,
'DISTANCE_ACCURACY_VALUE',
'Maximum model space distance between geometric entities at asserted c
onnectivities');
#420=(
GEOMETRIC_REPRESENTATION_CONTEXT(3)
GLOBAL_UNCERTAINTY_ASSIGNED_CONTEXT((#419))
GLOBAL_UNIT_ASSIGNED_CONTEXT((#421,#424,#422))
REPRESENTATION_CONTEXT('','3D')
);
#421=(
LENGTH_UNIT()
NAMED_UNIT(*)
SI_UNIT(.MILLI.,.METRE.)
);
#422=(
NAMED_UNIT(*)
SI_UNIT($,.STERADIAN.)
SOLID_ANGLE_UNIT()
);
#423=DIMENSIONAL_EXPONENTS(0.,0.,0.,0.,0.,0.,0.);
#424=(
CONVERSION_BASED_UNIT('degree',#426)
NAMED_UNIT(#423)
PLANE_ANGLE_UNIT()
);
#425=(
NAMED_UNIT(*)
PLANE_ANGLE_UNIT()
SI_UNIT($,.RADIAN.)
);
#426=PLANE_ANGLE_MEASURE_WITH_UNIT(PLANE_ANGLE_MEASURE(0.01745329252),#425);
#427=SHAPE_DEFINITION_REPRESENTATION(#428,#429);
#428=PRODUCT_DEFINITION_SHAPE('',$,#431);
#429=SHAPE_REPRESENTATION('',(#188),#420);
#430=PRODUCT_DEFINITION_CONTEXT('3D Mechanical Parts',#434,'design');
#431=PRODUCT_DEFINITION('TIFV063012','TIFV063012',#432,#430);
#432=PRODUCT_DEFINITION_FORMATION('',$,#436);
#433=APPLICATION_PROTOCOL_DEFINITION('international standard',
'automotive_design',2009,#434);
#434=APPLICATION_CONTEXT(
'Core Data for Automotive Mechanical Design Process');
#435=PRODUCT_CONTEXT('3D Mechanical Parts',#434,'mechanical');
#436=PRODUCT('TIFV063012','TIFV063012',$,(#435));
#437=PRESENTATION_STYLE_ASSIGNMENT((#439));
#438=PRESENTATION_STYLE_ASSIGNMENT((#440));
#439=SURFACE_STYLE_USAGE(.BOTH.,#441);
#440=SURFACE_STYLE_USAGE(.BOTH.,#442);
#441=SURFACE_SIDE_STYLE($,(#443));
#442=SURFACE_SIDE_STYLE($,(#444));
#443=SURFACE_STYLE_FILL_AREA(#445);
#444=SURFACE_STYLE_FILL_AREA(#446);
#445=FILL_AREA_STYLE($,(#447));
#446=FILL_AREA_STYLE($,(#448));
#447=FILL_AREA_STYLE_COLOUR($,#449);
#448=FILL_AREA_STYLE_COLOUR($,#450);
#449=COLOUR_RGB('',0.509803921568627,0.509803921568627,0.588235294117647);
#450=COLOUR_RGB('',1.,0.,0.);
ENDSEC;
END-ISO-10303-21;
