ISO-10303-21;
HEADER;
/* Generated by software containing ST-Developer
 * from STEP Tools, Inc. (www.steptools.com) 
 */

FILE_DESCRIPTION(
/* description */ (''),
/* implementation_level */ '2;1');

FILE_NAME(
/* name */ 'C:\\Users\\mdebiase\\Desktop\\baricentro\\RIV090075063.ipt.
stp',
/* time_stamp */ '2014-05-27T15:25:03+02:00',
/* author */ ('bfaro'),
/* organization */ (''),
/* preprocessor_version */ 'ST-DEVELOPER v15.2',
/* originating_system */ 'Autodesk Inventor 2014',
/* authorisation */ '');

FILE_SCHEMA (('AUTOMOTIVE_DESIGN { 1 0 10303 214 3 1 1 }'));
ENDSEC;

DATA;
#10=SHAPE_REPRESENTATION_RELATIONSHIP('SRR','None',#229,#11);
#11=ADVANCED_BREP_SHAPE_REPRESENTATION($,(#124),#220);
#12=STYLED_ITEM($,(#237),#124);
#13=PLANE($,#142);
#14=PLANE($,#143);
#15=PLANE($,#144);
#16=PLANE($,#145);
#17=TOROIDAL_SURFACE($,#138,79.9994382738856,41.9999999999984);
#18=FACE_BOUND($,#39,.T.);
#19=FACE_BOUND($,#41,.T.);
#20=FACE_BOUND($,#43,.T.);
#21=FACE_BOUND($,#45,.T.);
#22=FACE_BOUND($,#47,.T.);
#23=FACE_BOUND($,#49,.T.);
#24=FACE_BOUND($,#50,.T.);
#25=FACE_BOUND($,#51,.T.);
#26=FACE_BOUND($,#52,.T.);
#27=FACE_BOUND($,#53,.T.);
#28=FACE_BOUND($,#55,.T.);
#29=FACE_BOUND($,#57,.T.);
#30=FACE_OUTER_BOUND($,#38,.T.);
#31=FACE_OUTER_BOUND($,#40,.T.);
#32=FACE_OUTER_BOUND($,#42,.T.);
#33=FACE_OUTER_BOUND($,#44,.T.);
#34=FACE_OUTER_BOUND($,#46,.T.);
#35=FACE_OUTER_BOUND($,#48,.T.);
#36=FACE_OUTER_BOUND($,#54,.T.);
#37=FACE_OUTER_BOUND($,#56,.T.);
#38=EDGE_LOOP($,(#88));
#39=EDGE_LOOP($,(#89));
#40=EDGE_LOOP($,(#90));
#41=EDGE_LOOP($,(#91));
#42=EDGE_LOOP($,(#92));
#43=EDGE_LOOP($,(#93));
#44=EDGE_LOOP($,(#94));
#45=EDGE_LOOP($,(#95));
#46=EDGE_LOOP($,(#96));
#47=EDGE_LOOP($,(#97));
#48=EDGE_LOOP($,(#98));
#49=EDGE_LOOP($,(#99));
#50=EDGE_LOOP($,(#100));
#51=EDGE_LOOP($,(#101));
#52=EDGE_LOOP($,(#102));
#53=EDGE_LOOP($,(#103));
#54=EDGE_LOOP($,(#104));
#55=EDGE_LOOP($,(#105));
#56=EDGE_LOOP($,(#106));
#57=EDGE_LOOP($,(#107));
#58=CIRCLE($,#127,30.5);
#59=CIRCLE($,#128,30.5);
#60=CIRCLE($,#130,31.5);
#61=CIRCLE($,#131,31.5);
#62=CIRCLE($,#133,37.5);
#63=CIRCLE($,#134,37.5);
#64=CIRCLE($,#136,38.);
#65=CIRCLE($,#137,38.);
#66=CIRCLE($,#139,45.);
#67=CIRCLE($,#141,45.);
#68=VERTEX_POINT($,#190);
#69=VERTEX_POINT($,#192);
#70=VERTEX_POINT($,#195);
#71=VERTEX_POINT($,#197);
#72=VERTEX_POINT($,#200);
#73=VERTEX_POINT($,#202);
#74=VERTEX_POINT($,#205);
#75=VERTEX_POINT($,#207);
#76=VERTEX_POINT($,#210);
#77=VERTEX_POINT($,#213);
#78=EDGE_CURVE($,#68,#68,#58,.T.);
#79=EDGE_CURVE($,#69,#69,#59,.T.);
#80=EDGE_CURVE($,#70,#70,#60,.T.);
#81=EDGE_CURVE($,#71,#71,#61,.T.);
#82=EDGE_CURVE($,#72,#72,#62,.T.);
#83=EDGE_CURVE($,#73,#73,#63,.T.);
#84=EDGE_CURVE($,#74,#74,#64,.T.);
#85=EDGE_CURVE($,#75,#75,#65,.T.);
#86=EDGE_CURVE($,#76,#76,#66,.T.);
#87=EDGE_CURVE($,#77,#77,#67,.T.);
#88=ORIENTED_EDGE($,*,*,#78,.F.);
#89=ORIENTED_EDGE($,*,*,#79,.F.);
#90=ORIENTED_EDGE($,*,*,#80,.F.);
#91=ORIENTED_EDGE($,*,*,#81,.F.);
#92=ORIENTED_EDGE($,*,*,#82,.F.);
#93=ORIENTED_EDGE($,*,*,#83,.F.);
#94=ORIENTED_EDGE($,*,*,#84,.T.);
#95=ORIENTED_EDGE($,*,*,#85,.F.);
#96=ORIENTED_EDGE($,*,*,#86,.F.);
#97=ORIENTED_EDGE($,*,*,#85,.T.);
#98=ORIENTED_EDGE($,*,*,#86,.T.);
#99=ORIENTED_EDGE($,*,*,#87,.F.);
#100=ORIENTED_EDGE($,*,*,#79,.T.);
#101=ORIENTED_EDGE($,*,*,#80,.T.);
#102=ORIENTED_EDGE($,*,*,#78,.T.);
#103=ORIENTED_EDGE($,*,*,#82,.T.);
#104=ORIENTED_EDGE($,*,*,#84,.F.);
#105=ORIENTED_EDGE($,*,*,#81,.T.);
#106=ORIENTED_EDGE($,*,*,#87,.T.);
#107=ORIENTED_EDGE($,*,*,#83,.T.);
#108=CYLINDRICAL_SURFACE($,#126,30.5);
#109=CYLINDRICAL_SURFACE($,#129,31.5);
#110=CYLINDRICAL_SURFACE($,#132,37.4999999999998);
#111=CYLINDRICAL_SURFACE($,#135,38.);
#112=CYLINDRICAL_SURFACE($,#140,45.);
#113=ADVANCED_FACE($,(#30,#18),#108,.F.);
#114=ADVANCED_FACE($,(#31,#19),#109,.F.);
#115=ADVANCED_FACE($,(#32,#20),#110,.F.);
#116=ADVANCED_FACE($,(#33,#21),#111,.T.);
#117=ADVANCED_FACE($,(#34,#22),#17,.F.);
#118=ADVANCED_FACE($,(#35,#23),#112,.T.);
#119=ADVANCED_FACE($,(#24,#25),#13,.T.);
#120=ADVANCED_FACE($,(#26,#27),#14,.T.);
#121=ADVANCED_FACE($,(#36,#28),#15,.T.);
#122=ADVANCED_FACE($,(#37,#29),#16,.T.);
#123=CLOSED_SHELL($,(#113,#114,#115,#116,#117,#118,#119,#120,#121,#122));
#124=MANIFOLD_SOLID_BREP('Solido1',#123);
#125=AXIS2_PLACEMENT_3D('placement',#188,#146,#147);
#126=AXIS2_PLACEMENT_3D($,#189,#148,#149);
#127=AXIS2_PLACEMENT_3D($,#191,#150,#151);
#128=AXIS2_PLACEMENT_3D($,#193,#152,#153);
#129=AXIS2_PLACEMENT_3D($,#194,#154,#155);
#130=AXIS2_PLACEMENT_3D($,#196,#156,#157);
#131=AXIS2_PLACEMENT_3D($,#198,#158,#159);
#132=AXIS2_PLACEMENT_3D($,#199,#160,#161);
#133=AXIS2_PLACEMENT_3D($,#201,#162,#163);
#134=AXIS2_PLACEMENT_3D($,#203,#164,#165);
#135=AXIS2_PLACEMENT_3D($,#204,#166,#167);
#136=AXIS2_PLACEMENT_3D($,#206,#168,#169);
#137=AXIS2_PLACEMENT_3D($,#208,#170,#171);
#138=AXIS2_PLACEMENT_3D($,#209,#172,#173);
#139=AXIS2_PLACEMENT_3D($,#211,#174,#175);
#140=AXIS2_PLACEMENT_3D($,#212,#176,#177);
#141=AXIS2_PLACEMENT_3D($,#214,#178,#179);
#142=AXIS2_PLACEMENT_3D($,#215,#180,#181);
#143=AXIS2_PLACEMENT_3D($,#216,#182,#183);
#144=AXIS2_PLACEMENT_3D($,#217,#184,#185);
#145=AXIS2_PLACEMENT_3D($,#218,#186,#187);
#146=DIRECTION('axis',(0.,0.,1.));
#147=DIRECTION('refdir',(1.,0.,0.));
#148=DIRECTION('center_axis',(-1.,0.,0.));
#149=DIRECTION('ref_axis',(0.,0.,1.));
#150=DIRECTION('center_axis',(1.,0.,0.));
#151=DIRECTION('ref_axis',(0.,0.,1.));
#152=DIRECTION('center_axis',(-1.,0.,0.));
#153=DIRECTION('ref_axis',(0.,0.,1.));
#154=DIRECTION('center_axis',(-1.,0.,0.));
#155=DIRECTION('ref_axis',(0.,-1.,0.));
#156=DIRECTION('center_axis',(1.,0.,0.));
#157=DIRECTION('ref_axis',(0.,-1.,0.));
#158=DIRECTION('center_axis',(-1.,0.,0.));
#159=DIRECTION('ref_axis',(0.,-1.,0.));
#160=DIRECTION('center_axis',(1.,0.,0.));
#161=DIRECTION('ref_axis',(0.,-1.,0.));
#162=DIRECTION('center_axis',(-1.,0.,0.));
#163=DIRECTION('ref_axis',(0.,-1.,0.));
#164=DIRECTION('center_axis',(1.,0.,0.));
#165=DIRECTION('ref_axis',(0.,-1.,0.));
#166=DIRECTION('center_axis',(-1.,0.,0.));
#167=DIRECTION('ref_axis',(0.,1.,0.));
#168=DIRECTION('center_axis',(-1.,0.,0.));
#169=DIRECTION('ref_axis',(0.,1.,0.));
#170=DIRECTION('center_axis',(-1.,0.,0.));
#171=DIRECTION('ref_axis',(0.,1.,0.));
#172=DIRECTION('center_axis',(-1.,-1.60169662687852E-016,2.22253358008843E-016));
#173=DIRECTION('ref_axis',(2.32965904044561E-016,0.,1.));
#174=DIRECTION('center_axis',(-1.,0.,0.));
#175=DIRECTION('ref_axis',(0.,1.,0.));
#176=DIRECTION('center_axis',(-1.,0.,0.));
#177=DIRECTION('ref_axis',(0.,1.,0.));
#178=DIRECTION('center_axis',(-1.,0.,0.));
#179=DIRECTION('ref_axis',(0.,1.,0.));
#180=DIRECTION('center_axis',(1.,0.,0.));
#181=DIRECTION('ref_axis',(0.,0.,-1.));
#182=DIRECTION('center_axis',(-1.,0.,0.));
#183=DIRECTION('ref_axis',(0.,0.,1.));
#184=DIRECTION('center_axis',(1.,0.,0.));
#185=DIRECTION('ref_axis',(0.,0.,-1.));
#186=DIRECTION('center_axis',(-1.,0.,0.));
#187=DIRECTION('ref_axis',(0.,0.,1.));
#188=CARTESIAN_POINT('',(0.,0.,0.));
#189=CARTESIAN_POINT('Origin',(22.0600290497361,-4.38457004037218E-007,
4.613757E-031));
#190=CARTESIAN_POINT('',(-7.93997095026398,-4.38457004037218E-007,-30.5));
#191=CARTESIAN_POINT('Origin',(-7.93997095026398,-4.38457004037218E-007,
4.613757E-031));
#192=CARTESIAN_POINT('',(22.0600290497361,-4.38457004037218E-007,-30.5));
#193=CARTESIAN_POINT('Origin',(22.0600290497361,-4.38457004037218E-007,
4.613757E-031));
#194=CARTESIAN_POINT('Origin',(41.060029049736,-4.38457004037218E-007,4.613757E-031));
#195=CARTESIAN_POINT('',(22.0600290497361,31.499999561543,-3.85751E-015));
#196=CARTESIAN_POINT('Origin',(22.0600290497361,-4.38457004037218E-007,
4.613757E-031));
#197=CARTESIAN_POINT('',(60.060029049736,31.499999561543,-3.85751E-015));
#198=CARTESIAN_POINT('Origin',(60.060029049736,-4.38457004037218E-007,4.613757E-031));
#199=CARTESIAN_POINT('Origin',(-29.939970950264,-4.38457004037218E-007,
-7.98339299999999E-031));
#200=CARTESIAN_POINT('',(-7.93997095026398,37.499999561543,4.592274E-015));
#201=CARTESIAN_POINT('Origin',(-7.93997095026398,-4.38457004037218E-007,
-7.98339299999999E-031));
#202=CARTESIAN_POINT('',(-51.939970950264,37.499999561543,4.592274E-015));
#203=CARTESIAN_POINT('Origin',(-51.939970950264,-4.38457004037218E-007,
-7.98339299999999E-031));
#204=CARTESIAN_POINT('Origin',(41.060029049736,-4.38457004037218E-007,0.));
#205=CARTESIAN_POINT('',(60.060029049736,-38.0000004384568,4.653504E-015));
#206=CARTESIAN_POINT('Origin',(60.060029049736,-4.38457004037218E-007,0.));
#207=CARTESIAN_POINT('',(22.0600290497361,-4.38457004037218E-007,-38.));
#208=CARTESIAN_POINT('Origin',(22.0600290497361,-4.38457004037218E-007,
0.));
#209=CARTESIAN_POINT('Origin',(22.2772493939621,-4.38456968510081E-007,
4.9960036108132E-015));
#210=CARTESIAN_POINT('',(-0.939970950263955,-4.38457004037218E-007,-45.));
#211=CARTESIAN_POINT('Origin',(-0.939970950263955,-4.38457004037218E-007,
0.));
#212=CARTESIAN_POINT('Origin',(-26.439970950264,-4.38457004037218E-007,
0.));
#213=CARTESIAN_POINT('',(-51.939970950264,-45.0000004384568,5.510729E-015));
#214=CARTESIAN_POINT('Origin',(-51.939970950264,-4.38457004037218E-007,
0.));
#215=CARTESIAN_POINT('Origin',(22.0600290497361,-31.500000438457,4.613757E-031));
#216=CARTESIAN_POINT('Origin',(-7.93997095026398,-37.5000004384568,-7.98339299999999E-031));
#217=CARTESIAN_POINT('Origin',(60.060029049736,18.999999561543,0.));
#218=CARTESIAN_POINT('Origin',(-51.939970950264,22.499999561543,0.));
#219=UNCERTAINTY_MEASURE_WITH_UNIT(LENGTH_MEASURE(0.01),#221,
'DISTANCE_ACCURACY_VALUE',
'Maximum model space distance between geometric entities at asserted c
onnectivities');
#220=(
GEOMETRIC_REPRESENTATION_CONTEXT(3)
GLOBAL_UNCERTAINTY_ASSIGNED_CONTEXT((#219))
GLOBAL_UNIT_ASSIGNED_CONTEXT((#221,#224,#222))
REPRESENTATION_CONTEXT('','3D')
);
#221=(
LENGTH_UNIT()
NAMED_UNIT(*)
SI_UNIT(.MILLI.,.METRE.)
);
#222=(
NAMED_UNIT(*)
SI_UNIT($,.STERADIAN.)
SOLID_ANGLE_UNIT()
);
#223=DIMENSIONAL_EXPONENTS(0.,0.,0.,0.,0.,0.,0.);
#224=(
CONVERSION_BASED_UNIT('degree',#226)
NAMED_UNIT(#223)
PLANE_ANGLE_UNIT()
);
#225=(
NAMED_UNIT(*)
PLANE_ANGLE_UNIT()
SI_UNIT($,.RADIAN.)
);
#226=PLANE_ANGLE_MEASURE_WITH_UNIT(PLANE_ANGLE_MEASURE(0.01745329252),#225);
#227=SHAPE_DEFINITION_REPRESENTATION(#228,#229);
#228=PRODUCT_DEFINITION_SHAPE('',$,#231);
#229=SHAPE_REPRESENTATION('',(#125),#220);
#230=PRODUCT_DEFINITION_CONTEXT('3D Mechanical Parts',#234,'design');
#231=PRODUCT_DEFINITION('RIV090075063','RIV090075063',#232,#230);
#232=PRODUCT_DEFINITION_FORMATION('',$,#236);
#233=APPLICATION_PROTOCOL_DEFINITION('international standard',
'automotive_design',2009,#234);
#234=APPLICATION_CONTEXT(
'Core Data for Automotive Mechanical Design Process');
#235=PRODUCT_CONTEXT('3D Mechanical Parts',#234,'mechanical');
#236=PRODUCT('RIV090075063','RIV090075063',$,(#235));
#237=PRESENTATION_STYLE_ASSIGNMENT((#238));
#238=SURFACE_STYLE_USAGE(.BOTH.,#239);
#239=SURFACE_SIDE_STYLE($,(#240));
#240=SURFACE_STYLE_FILL_AREA(#241);
#241=FILL_AREA_STYLE($,(#242));
#242=FILL_AREA_STYLE_COLOUR($,#243);
#243=COLOUR_RGB('',0.509803921568627,0.509803921568627,0.588235294117647);
ENDSEC;
END-ISO-10303-21;
