ISO-10303-21;
HEADER;
/****************************************************************
 * Generated by software with PDE/Lib inside                    *
 * PDElib Version v51a, created Mon 03/22/2010                  *
 * International Technegroup Inc. (www.iti-oh.com)              *
 ****************************************************************/
FILE_DESCRIPTION((''),'2;1');
FILE_NAME('R:\\Neue Zeichnungdateien ab Januar 2010\\schwere Rohrbefestigungen\\Montageteile\\Step\\135607.stp','2010-07-15T09:52:44',('DMK009'),(''),'Autodesk Inventor 2010','Autodesk Inventor 2010','');
FILE_SCHEMA(('AUTOMOTIVE_DESIGN { 1 0 10303 214 1 1 1 1 }'));
ENDSEC;
DATA;
#5=APPLICATION_CONTEXT('automotive design');
#6=APPLICATION_PROTOCOL_DEFINITION('International Standard','automotive_design',2001,#5);
#7=PRODUCT_CONTEXT('',#5,'mechanical');
#8=PRODUCT('MPT-F\S\|hrung 135607','MPT-F\S\|hrung 135607',$,(#7));
#9=PRODUCT_RELATED_PRODUCT_CATEGORY('part',$,(#8));
#10=PRODUCT_DEFINITION_FORMATION('',$,#8);
#11=PRODUCT_DEFINITION_CONTEXT('part definition',#5,'design');
#12=PRODUCT_DEFINITION('',$,#10,#11);
#18=(NAMED_UNIT(*)PLANE_ANGLE_UNIT()SI_UNIT($,.RADIAN.));
#19=DIMENSIONAL_EXPONENTS(0.0,0.0,0.0,0.0,0.0,0.0,0.0);
#20=PLANE_ANGLE_MEASURE_WITH_UNIT(PLANE_ANGLE_MEASURE(0.017453292500000),#18);
#24=(CONVERSION_BASED_UNIT('DEGREE',#20)NAMED_UNIT(#19)PLANE_ANGLE_UNIT());
#28=(NAMED_UNIT(*)SI_UNIT($,.STERADIAN.)SOLID_ANGLE_UNIT());
#32=(LENGTH_UNIT()NAMED_UNIT(*)SI_UNIT(.MILLI.,.METRE.));
#34=UNCERTAINTY_MEASURE_WITH_UNIT(LENGTH_MEASURE(0.010000000000000),#32,'DISTANCE_ACCURACY_VALUE','');
#36=(GEOMETRIC_REPRESENTATION_CONTEXT(3)GLOBAL_UNCERTAINTY_ASSIGNED_CONTEXT((#34))GLOBAL_UNIT_ASSIGNED_CONTEXT((#24,#28,#32))REPRESENTATION_CONTEXT('None','None'));
#37=AXIS2_PLACEMENT_3D('',#38,#39,#40);
#38=CARTESIAN_POINT('',(0.0,0.0,0.0));
#39=DIRECTION('',(0.0,0.0,1.0));
#40=DIRECTION('',(1.0,0.0,0.0));
#41=SHAPE_REPRESENTATION('',(#37),#36);
#42=PRODUCT_DEFINITION_SHAPE('','',#12);
#43=SHAPE_DEFINITION_REPRESENTATION(#42,#41);
#49=(NAMED_UNIT(*)PLANE_ANGLE_UNIT()SI_UNIT($,.RADIAN.));
#50=DIMENSIONAL_EXPONENTS(0.0,0.0,0.0,0.0,0.0,0.0,0.0);
#51=PLANE_ANGLE_MEASURE_WITH_UNIT(PLANE_ANGLE_MEASURE(0.017453292500000),#49);
#55=(CONVERSION_BASED_UNIT('DEGREE',#51)NAMED_UNIT(#50)PLANE_ANGLE_UNIT());
#59=(NAMED_UNIT(*)SI_UNIT($,.STERADIAN.)SOLID_ANGLE_UNIT());
#63=(LENGTH_UNIT()NAMED_UNIT(*)SI_UNIT(.MILLI.,.METRE.));
#65=UNCERTAINTY_MEASURE_WITH_UNIT(LENGTH_MEASURE(0.000001000000000),#63,'DISTANCE_ACCURACY_VALUE','');
#67=(GEOMETRIC_REPRESENTATION_CONTEXT(3)GLOBAL_UNCERTAINTY_ASSIGNED_CONTEXT((#65))GLOBAL_UNIT_ASSIGNED_CONTEXT((#55,#59,#63))REPRESENTATION_CONTEXT('','3D'));
#68=CARTESIAN_POINT('',(-3.500000000000005,-7.959941E-016,5.0));
#69=CARTESIAN_POINT('',(-3.500000000000005,-7.959941E-016,0.0));
#70=CARTESIAN_POINT('',(-3.500000000000003,-6.499999999999999,5.0));
#71=CARTESIAN_POINT('',(-3.500000000000003,-6.499999999999999,0.0));
#72=CARTESIAN_POINT('',(2.999999999999996,-6.500000000000000,5.0));
#73=CARTESIAN_POINT('',(2.999999999999996,-6.500000000000000,0.0));
#74=CARTESIAN_POINT('',(9.499999999999993,-6.499999999999996,5.0));
#75=CARTESIAN_POINT('',(9.499999999999993,-6.499999999999996,0.0));
#76=CARTESIAN_POINT('',(9.499999999999995,7.959941E-016,5.0));
#77=CARTESIAN_POINT('',(9.499999999999995,7.959941E-016,0.0));
#78=CARTESIAN_POINT('',(9.499999999999993,6.499999999999999,5.0));
#79=CARTESIAN_POINT('',(9.499999999999993,6.499999999999999,0.0));
#80=CARTESIAN_POINT('',(2.999999999999994,6.500000000000000,5.0));
#81=CARTESIAN_POINT('',(2.999999999999994,6.500000000000000,0.0));
#82=CARTESIAN_POINT('',(-3.500000000000004,6.499999999999996,5.0));
#83=CARTESIAN_POINT('',(-3.500000000000004,6.499999999999996,0.0));
#84=CARTESIAN_POINT('',(-3.500000000000005,-7.959941E-016,5.0));
#85=CARTESIAN_POINT('',(-3.500000000000005,-7.959941E-016,0.0));
#93=(BOUNDED_SURFACE()B_SPLINE_SURFACE(1,2,((#68,#70,#72,#74,#76,#78,#80,#82,#84),(#69,#71,#73,#75,#77,#79,#81,#83,#85)),.UNSPECIFIED.,.F.,.T.,.U.)B_SPLINE_SURFACE_WITH_KNOTS((2,2),(3,2,2,2,3),(-17.237635994374525,-16.468405225143755),(0.0,10.210176124166829,20.420352248333657,30.630528372500482,40.840704496667314),.UNSPECIFIED.)GEOMETRIC_REPRESENTATION_ITEM()RATIONAL_B_SPLINE_SURFACE(((1.0,0.707106781186548,1.0,0.707106781186548,1.0,0.707106781186548,1.0,0.707106781186548,1.0),(1.0,0.707106781186548,1.0,0.707106781186548,1.0,0.707106781186548,1.0,0.707106781186548,1.0)))REPRESENTATION_ITEM('')SURFACE());
#94=CARTESIAN_POINT('',(-3.500000000000005,-7.959941E-016,0.0));
#95=VERTEX_POINT('',#94);
#96=CARTESIAN_POINT('',(2.999999999999995,0.0,0.0));
#97=DIRECTION('',(0.0,0.0,1.0));
#98=DIRECTION('',(1.0,0.0,0.0));
#99=AXIS2_PLACEMENT_3D('',#96,#97,#98);
#100=CIRCLE('',#99,6.500000000000000);
#101=EDGE_CURVE('',#95,#95,#100,.T.);
#102=ORIENTED_EDGE('',*,*,#101,.F.);
#103=EDGE_LOOP('',(#102));
#104=FACE_OUTER_BOUND('',#103,.T.);
#105=CARTESIAN_POINT('',(9.499999999999995,0.0,5.0));
#106=VERTEX_POINT('',#105);
#107=CARTESIAN_POINT('',(2.999999999999995,0.0,5.0));
#108=DIRECTION('',(0.0,0.0,-1.0));
#109=DIRECTION('',(1.0,0.0,0.0));
#110=AXIS2_PLACEMENT_3D('',#107,#108,#109);
#111=CIRCLE('',#110,6.500000000000000);
#112=EDGE_CURVE('',#106,#106,#111,.T.);
#113=ORIENTED_EDGE('',*,*,#112,.F.);
#114=EDGE_LOOP('',(#113));
#115=FACE_BOUND('',#114,.T.);
#116=ADVANCED_FACE('',(#104,#115),#93,.F.);
#117=CARTESIAN_POINT('',(-15.000000000000002,-50.0,23.0));
#118=DIRECTION('',(0.0,0.0,1.0));
#119=DIRECTION('',(1.0,0.0,0.0));
#120=AXIS2_PLACEMENT_3D('',#117,#118,#119);
#121=PLANE('',#120);
#122=CARTESIAN_POINT('',(-15.999999999999998,50.0,23.0));
#123=VERTEX_POINT('',#122);
#124=CARTESIAN_POINT('',(-15.999999999999998,-50.0,23.0));
#125=VERTEX_POINT('',#124);
#126=CARTESIAN_POINT('',(-16.0,50.0,23.0));
#127=DIRECTION('',(0.0,-1.0,0.0));
#128=VECTOR('',#127,100.0);
#129=LINE('',#126,#128);
#130=EDGE_CURVE('',#123,#125,#129,.T.);
#131=ORIENTED_EDGE('',*,*,#130,.F.);
#132=CARTESIAN_POINT('',(-30.0,50.0,23.0));
#133=VERTEX_POINT('',#132);
#134=CARTESIAN_POINT('',(-15.999999999999998,50.0,23.0));
#135=DIRECTION('',(-1.0,0.0,0.0));
#136=VECTOR('',#135,14.000000000000002);
#137=LINE('',#134,#136);
#138=EDGE_CURVE('',#123,#133,#137,.T.);
#139=ORIENTED_EDGE('',*,*,#138,.T.);
#140=CARTESIAN_POINT('',(-30.0,-50.0,23.0));
#141=VERTEX_POINT('',#140);
#142=CARTESIAN_POINT('',(-30.0,-50.0,23.0));
#143=DIRECTION('',(0.0,1.0,0.0));
#144=VECTOR('',#143,100.0);
#145=LINE('',#142,#144);
#146=EDGE_CURVE('',#141,#133,#145,.T.);
#147=ORIENTED_EDGE('',*,*,#146,.F.);
#148=CARTESIAN_POINT('',(-30.0,-50.0,23.0));
#149=DIRECTION('',(1.0,0.0,0.0));
#150=VECTOR('',#149,14.000000000000002);
#151=LINE('',#148,#150);
#152=EDGE_CURVE('',#141,#125,#151,.T.);
#153=ORIENTED_EDGE('',*,*,#152,.T.);
#154=EDGE_LOOP('',(#131,#139,#147,#153));
#155=FACE_OUTER_BOUND('',#154,.T.);
#156=ADVANCED_FACE('',(#155),#121,.T.);
#157=CARTESIAN_POINT('',(-22.500000000000000,50.0,20.500000000000007));
#158=DIRECTION('',(0.0,1.0,0.0));
#159=DIRECTION('',(0.0,0.0,1.0));
#160=AXIS2_PLACEMENT_3D('',#157,#158,#159);
#161=PLANE('',#160);
#162=CARTESIAN_POINT('',(-30.0,50.0,18.0));
#163=VERTEX_POINT('',#162);
#164=CARTESIAN_POINT('',(-15.999999999999998,50.0,18.0));
#165=VERTEX_POINT('',#164);
#166=CARTESIAN_POINT('',(-30.0,50.0,18.0));
#167=DIRECTION('',(1.0,0.0,0.0));
#168=VECTOR('',#167,14.000000000000002);
#169=LINE('',#166,#168);
#170=EDGE_CURVE('',#163,#165,#169,.T.);
#171=ORIENTED_EDGE('',*,*,#170,.F.);
#172=CARTESIAN_POINT('',(-30.0,50.0,23.0));
#173=DIRECTION('',(0.0,0.0,-1.0));
#174=VECTOR('',#173,5.0);
#175=LINE('',#172,#174);
#176=EDGE_CURVE('',#133,#163,#175,.T.);
#177=ORIENTED_EDGE('',*,*,#176,.F.);
#178=ORIENTED_EDGE('',*,*,#138,.F.);
#179=CARTESIAN_POINT('',(-10.0,50.0,16.999999999999996));
#180=VERTEX_POINT('',#179);
#181=CARTESIAN_POINT('',(-16.0,50.0,16.999999999999996));
#182=DIRECTION('',(0.0,-1.0,0.0));
#183=DIRECTION('',(1.0,0.0,0.0));
#184=AXIS2_PLACEMENT_3D('',#181,#182,#183);
#185=CIRCLE('',#184,6.000000000000001);
#186=EDGE_CURVE('',#180,#123,#185,.T.);
#187=ORIENTED_EDGE('',*,*,#186,.F.);
#188=CARTESIAN_POINT('',(-10.000000000000002,50.0,6.0));
#189=VERTEX_POINT('',#188);
#190=CARTESIAN_POINT('',(-10.000000000000002,50.0,6.0));
#191=DIRECTION('',(0.0,0.0,1.0));
#192=VECTOR('',#191,10.999999999999996);
#193=LINE('',#190,#192);
#194=EDGE_CURVE('',#189,#180,#193,.T.);
#195=ORIENTED_EDGE('',*,*,#194,.F.);
#196=CARTESIAN_POINT('',(-9.000000000000002,50.0,5.0));
#197=VERTEX_POINT('',#196);
#198=CARTESIAN_POINT('',(-9.000000000000002,50.0,6.0));
#199=DIRECTION('',(0.0,1.0,0.0));
#200=DIRECTION('',(0.0,0.0,-1.0));
#201=AXIS2_PLACEMENT_3D('',#198,#199,#200);
#202=CIRCLE('',#201,1.000000000000000);
#203=EDGE_CURVE('',#197,#189,#202,.T.);
#204=ORIENTED_EDGE('',*,*,#203,.F.);
#205=CARTESIAN_POINT('',(14.999999999999998,50.0,5.0));
#206=VERTEX_POINT('',#205);
#207=CARTESIAN_POINT('',(-9.0,50.0,5.0));
#208=DIRECTION('',(1.0,0.0,0.0));
#209=VECTOR('',#208,24.0);
#210=LINE('',#207,#209);
#211=EDGE_CURVE('',#197,#206,#210,.T.);
#212=ORIENTED_EDGE('',*,*,#211,.T.);
#213=CARTESIAN_POINT('',(14.999999999999998,50.0,0.0));
#214=VERTEX_POINT('',#213);
#215=CARTESIAN_POINT('',(14.999999999999998,50.0,0.0));
#216=DIRECTION('',(0.0,0.0,1.0));
#217=VECTOR('',#216,5.0);
#218=LINE('',#215,#217);
#219=EDGE_CURVE('',#214,#206,#218,.T.);
#220=ORIENTED_EDGE('',*,*,#219,.F.);
#221=CARTESIAN_POINT('',(-9.000000000000002,50.0,0.0));
#222=VERTEX_POINT('',#221);
#223=CARTESIAN_POINT('',(-9.0,50.0,0.0));
#224=DIRECTION('',(1.0,0.0,0.0));
#225=VECTOR('',#224,24.0);
#226=LINE('',#223,#225);
#227=EDGE_CURVE('',#222,#214,#226,.T.);
#228=ORIENTED_EDGE('',*,*,#227,.F.);
#229=CARTESIAN_POINT('',(-15.000000000000002,50.0,6.0));
#230=VERTEX_POINT('',#229);
#231=CARTESIAN_POINT('',(-9.000000000000002,50.0,6.0));
#232=DIRECTION('',(0.0,1.0,0.0));
#233=DIRECTION('',(0.0,0.0,-1.0));
#234=AXIS2_PLACEMENT_3D('',#231,#232,#233);
#235=CIRCLE('',#234,6.0);
#236=EDGE_CURVE('',#222,#230,#235,.T.);
#237=ORIENTED_EDGE('',*,*,#236,.T.);
#238=CARTESIAN_POINT('',(-15.000000000000002,50.0,16.999999999999996));
#239=VERTEX_POINT('',#238);
#240=CARTESIAN_POINT('',(-15.000000000000002,50.0,16.999999999999996));
#241=DIRECTION('',(0.0,0.0,-1.0));
#242=VECTOR('',#241,10.999999999999998);
#243=LINE('',#240,#242);
#244=EDGE_CURVE('',#239,#230,#243,.T.);
#245=ORIENTED_EDGE('',*,*,#244,.F.);
#246=CARTESIAN_POINT('',(-16.0,50.0,16.999999999999996));
#247=DIRECTION('',(0.0,-1.0,0.0));
#248=DIRECTION('',(1.0,0.0,0.0));
#249=AXIS2_PLACEMENT_3D('',#246,#247,#248);
#250=CIRCLE('',#249,1.000000000000001);
#251=EDGE_CURVE('',#239,#165,#250,.T.);
#252=ORIENTED_EDGE('',*,*,#251,.T.);
#253=EDGE_LOOP('',(#171,#177,#178,#187,#195,#204,#212,#220,#228,#237,#245,#252));
#254=FACE_OUTER_BOUND('',#253,.T.);
#255=ADVANCED_FACE('',(#254),#161,.T.);
#256=CARTESIAN_POINT('',(-30.0,-50.0,23.0));
#257=DIRECTION('',(-1.0,0.0,0.0));
#258=DIRECTION('',(0.0,0.0,1.0));
#259=AXIS2_PLACEMENT_3D('',#256,#257,#258);
#260=PLANE('',#259);
#261=ORIENTED_EDGE('',*,*,#176,.T.);
#262=CARTESIAN_POINT('',(-30.0,-50.0,18.0));
#263=VERTEX_POINT('',#262);
#264=CARTESIAN_POINT('',(-30.0,-50.0,18.0));
#265=DIRECTION('',(0.0,1.0,0.0));
#266=VECTOR('',#265,100.0);
#267=LINE('',#264,#266);
#268=EDGE_CURVE('',#263,#163,#267,.T.);
#269=ORIENTED_EDGE('',*,*,#268,.F.);
#270=CARTESIAN_POINT('',(-30.0,-50.0,18.0));
#271=DIRECTION('',(0.0,0.0,1.0));
#272=VECTOR('',#271,5.0);
#273=LINE('',#270,#272);
#274=EDGE_CURVE('',#263,#141,#273,.T.);
#275=ORIENTED_EDGE('',*,*,#274,.T.);
#276=ORIENTED_EDGE('',*,*,#146,.T.);
#277=EDGE_LOOP('',(#261,#269,#275,#276));
#278=FACE_OUTER_BOUND('',#277,.T.);
#279=ADVANCED_FACE('',(#278),#260,.T.);
#280=CARTESIAN_POINT('',(-30.0,-50.0,18.0));
#281=DIRECTION('',(0.0,0.0,-1.0));
#282=DIRECTION('',(-1.0,0.0,0.0));
#283=AXIS2_PLACEMENT_3D('',#280,#281,#282);
#284=PLANE('',#283);
#285=CARTESIAN_POINT('',(-15.999999999999998,-50.0,18.0));
#286=VERTEX_POINT('',#285);
#287=CARTESIAN_POINT('',(-16.0,-50.0,18.0));
#288=DIRECTION('',(0.0,1.0,0.0));
#289=VECTOR('',#288,100.0);
#290=LINE('',#287,#289);
#291=EDGE_CURVE('',#286,#165,#290,.T.);
#292=ORIENTED_EDGE('',*,*,#291,.F.);
#293=CARTESIAN_POINT('',(-15.999999999999998,-50.0,18.0));
#294=DIRECTION('',(-1.0,0.0,0.0));
#295=VECTOR('',#294,14.000000000000002);
#296=LINE('',#293,#295);
#297=EDGE_CURVE('',#286,#263,#296,.T.);
#298=ORIENTED_EDGE('',*,*,#297,.T.);
#299=ORIENTED_EDGE('',*,*,#268,.T.);
#300=ORIENTED_EDGE('',*,*,#170,.T.);
#301=EDGE_LOOP('',(#292,#298,#299,#300));
#302=FACE_OUTER_BOUND('',#301,.T.);
#303=ADVANCED_FACE('',(#302),#284,.T.);
#304=CARTESIAN_POINT('',(-22.500000000000000,-50.0,20.500000000000007));
#305=DIRECTION('',(0.0,1.0,0.0));
#306=DIRECTION('',(0.0,0.0,1.0));
#307=AXIS2_PLACEMENT_3D('',#304,#305,#306);
#308=PLANE('',#307);
#309=ORIENTED_EDGE('',*,*,#152,.F.);
#310=ORIENTED_EDGE('',*,*,#274,.F.);
#311=ORIENTED_EDGE('',*,*,#297,.F.);
#312=CARTESIAN_POINT('',(-15.000000000000002,-50.0,16.999999999999996));
#313=VERTEX_POINT('',#312);
#314=CARTESIAN_POINT('',(-16.0,-50.0,16.999999999999996));
#315=DIRECTION('',(0.0,-1.0,0.0));
#316=DIRECTION('',(1.0,0.0,0.0));
#317=AXIS2_PLACEMENT_3D('',#314,#315,#316);
#318=CIRCLE('',#317,1.000000000000001);
#319=EDGE_CURVE('',#313,#286,#318,.T.);
#320=ORIENTED_EDGE('',*,*,#319,.F.);
#321=CARTESIAN_POINT('',(-15.000000000000002,-50.0,6.0));
#322=VERTEX_POINT('',#321);
#323=CARTESIAN_POINT('',(-15.000000000000002,-50.0,5.999999999999998));
#324=DIRECTION('',(0.0,0.0,1.0));
#325=VECTOR('',#324,10.999999999999998);
#326=LINE('',#323,#325);
#327=EDGE_CURVE('',#322,#313,#326,.T.);
#328=ORIENTED_EDGE('',*,*,#327,.F.);
#329=CARTESIAN_POINT('',(-9.000000000000002,-50.0,0.0));
#330=VERTEX_POINT('',#329);
#331=CARTESIAN_POINT('',(-9.000000000000002,-50.0,6.0));
#332=DIRECTION('',(0.0,1.0,0.0));
#333=DIRECTION('',(0.0,0.0,-1.0));
#334=AXIS2_PLACEMENT_3D('',#331,#332,#333);
#335=CIRCLE('',#334,6.0);
#336=EDGE_CURVE('',#330,#322,#335,.T.);
#337=ORIENTED_EDGE('',*,*,#336,.F.);
#338=CARTESIAN_POINT('',(14.999999999999998,-50.0,0.0));
#339=VERTEX_POINT('',#338);
#340=CARTESIAN_POINT('',(14.999999999999998,-50.0,0.0));
#341=DIRECTION('',(-1.0,0.0,0.0));
#342=VECTOR('',#341,24.0);
#343=LINE('',#340,#342);
#344=EDGE_CURVE('',#339,#330,#343,.T.);
#345=ORIENTED_EDGE('',*,*,#344,.F.);
#346=CARTESIAN_POINT('',(14.999999999999998,-50.0,5.0));
#347=VERTEX_POINT('',#346);
#348=CARTESIAN_POINT('',(14.999999999999998,-50.0,0.0));
#349=DIRECTION('',(0.0,0.0,1.0));
#350=VECTOR('',#349,5.0);
#351=LINE('',#348,#350);
#352=EDGE_CURVE('',#339,#347,#351,.T.);
#353=ORIENTED_EDGE('',*,*,#352,.T.);
#354=CARTESIAN_POINT('',(-9.000000000000002,-50.0,5.0));
#355=VERTEX_POINT('',#354);
#356=CARTESIAN_POINT('',(14.999999999999998,-50.0,5.0));
#357=DIRECTION('',(-1.0,0.0,0.0));
#358=VECTOR('',#357,24.0);
#359=LINE('',#356,#358);
#360=EDGE_CURVE('',#347,#355,#359,.T.);
#361=ORIENTED_EDGE('',*,*,#360,.T.);
#362=CARTESIAN_POINT('',(-10.000000000000002,-50.0,6.0));
#363=VERTEX_POINT('',#362);
#364=CARTESIAN_POINT('',(-9.000000000000002,-50.0,6.0));
#365=DIRECTION('',(0.0,1.0,0.0));
#366=DIRECTION('',(0.0,0.0,-1.0));
#367=AXIS2_PLACEMENT_3D('',#364,#365,#366);
#368=CIRCLE('',#367,1.000000000000000);
#369=EDGE_CURVE('',#355,#363,#368,.T.);
#370=ORIENTED_EDGE('',*,*,#369,.T.);
#371=CARTESIAN_POINT('',(-10.0,-50.0,16.999999999999996));
#372=VERTEX_POINT('',#371);
#373=CARTESIAN_POINT('',(-10.000000000000002,-50.0,16.999999999999996));
#374=DIRECTION('',(0.0,0.0,-1.0));
#375=VECTOR('',#374,10.999999999999996);
#376=LINE('',#373,#375);
#377=EDGE_CURVE('',#372,#363,#376,.T.);
#378=ORIENTED_EDGE('',*,*,#377,.F.);
#379=CARTESIAN_POINT('',(-16.0,-50.0,16.999999999999996));
#380=DIRECTION('',(0.0,-1.0,0.0));
#381=DIRECTION('',(1.0,0.0,0.0));
#382=AXIS2_PLACEMENT_3D('',#379,#380,#381);
#383=CIRCLE('',#382,6.000000000000001);
#384=EDGE_CURVE('',#372,#125,#383,.T.);
#385=ORIENTED_EDGE('',*,*,#384,.T.);
#386=EDGE_LOOP('',(#309,#310,#311,#320,#328,#337,#345,#353,#361,#370,#378,#385));
#387=FACE_OUTER_BOUND('',#386,.T.);
#388=ADVANCED_FACE('',(#387),#308,.F.);
#389=CARTESIAN_POINT('',(-16.0,0.0,16.999999999999996));
#390=DIRECTION('',(0.0,-1.0,0.0));
#391=DIRECTION('',(1.0,0.0,0.0));
#392=AXIS2_PLACEMENT_3D('',#389,#390,#391);
#393=CYLINDRICAL_SURFACE('',#392,1.000000000000001);
#394=ORIENTED_EDGE('',*,*,#291,.T.);
#395=ORIENTED_EDGE('',*,*,#251,.F.);
#396=CARTESIAN_POINT('',(-15.000000000000002,-50.0,16.999999999999996));
#397=DIRECTION('',(0.0,1.0,0.0));
#398=VECTOR('',#397,100.0);
#399=LINE('',#396,#398);
#400=EDGE_CURVE('',#313,#239,#399,.T.);
#401=ORIENTED_EDGE('',*,*,#400,.F.);
#402=ORIENTED_EDGE('',*,*,#319,.T.);
#403=EDGE_LOOP('',(#394,#395,#401,#402));
#404=FACE_OUTER_BOUND('',#403,.T.);
#405=ADVANCED_FACE('',(#404),#393,.F.);
#406=CARTESIAN_POINT('',(-16.0,0.0,16.999999999999996));
#407=DIRECTION('',(0.0,-1.0,0.0));
#408=DIRECTION('',(1.0,0.0,0.0));
#409=AXIS2_PLACEMENT_3D('',#406,#407,#408);
#410=CYLINDRICAL_SURFACE('',#409,6.000000000000001);
#411=ORIENTED_EDGE('',*,*,#130,.T.);
#412=ORIENTED_EDGE('',*,*,#384,.F.);
#413=CARTESIAN_POINT('',(-10.000000000000002,50.0,16.999999999999996));
#414=DIRECTION('',(0.0,-1.0,0.0));
#415=VECTOR('',#414,100.0);
#416=LINE('',#413,#415);
#417=EDGE_CURVE('',#180,#372,#416,.T.);
#418=ORIENTED_EDGE('',*,*,#417,.F.);
#419=ORIENTED_EDGE('',*,*,#186,.T.);
#420=EDGE_LOOP('',(#411,#412,#418,#419));
#421=FACE_OUTER_BOUND('',#420,.T.);
#422=ADVANCED_FACE('',(#421),#410,.T.);
#423=CARTESIAN_POINT('',(-10.000000000000002,50.0,18.0));
#424=DIRECTION('',(1.0,0.0,0.0));
#425=DIRECTION('',(0.0,0.0,-1.0));
#426=AXIS2_PLACEMENT_3D('',#423,#424,#425);
#427=PLANE('',#426);
#428=ORIENTED_EDGE('',*,*,#417,.T.);
#429=ORIENTED_EDGE('',*,*,#377,.T.);
#430=CARTESIAN_POINT('',(-10.000000000000002,50.0,5.999999999999998));
#431=DIRECTION('',(0.0,-1.0,0.0));
#432=VECTOR('',#431,100.0);
#433=LINE('',#430,#432);
#434=EDGE_CURVE('',#189,#363,#433,.T.);
#435=ORIENTED_EDGE('',*,*,#434,.F.);
#436=ORIENTED_EDGE('',*,*,#194,.T.);
#437=EDGE_LOOP('',(#428,#429,#435,#436));
#438=FACE_OUTER_BOUND('',#437,.T.);
#439=ADVANCED_FACE('',(#438),#427,.T.);
#440=CARTESIAN_POINT('',(-15.000000000000002,50.0,3.061617E-016));
#441=DIRECTION('',(-1.0,0.0,0.0));
#442=DIRECTION('',(0.0,0.0,1.0));
#443=AXIS2_PLACEMENT_3D('',#440,#441,#442);
#444=PLANE('',#443);
#445=ORIENTED_EDGE('',*,*,#400,.T.);
#446=ORIENTED_EDGE('',*,*,#244,.T.);
#447=CARTESIAN_POINT('',(-15.000000000000002,-50.0,5.999999999999998));
#448=DIRECTION('',(0.0,1.0,0.0));
#449=VECTOR('',#448,100.0);
#450=LINE('',#447,#449);
#451=EDGE_CURVE('',#322,#230,#450,.T.);
#452=ORIENTED_EDGE('',*,*,#451,.F.);
#453=ORIENTED_EDGE('',*,*,#327,.T.);
#454=EDGE_LOOP('',(#445,#446,#452,#453));
#455=FACE_OUTER_BOUND('',#454,.T.);
#456=ADVANCED_FACE('',(#455),#444,.T.);
#457=CARTESIAN_POINT('',(-9.000000000000002,0.0,6.0));
#458=DIRECTION('',(0.0,1.0,0.0));
#459=DIRECTION('',(0.0,0.0,-1.0));
#460=AXIS2_PLACEMENT_3D('',#457,#458,#459);
#461=CYLINDRICAL_SURFACE('',#460,1.000000000000000);
#462=ORIENTED_EDGE('',*,*,#434,.T.);
#463=ORIENTED_EDGE('',*,*,#369,.F.);
#464=CARTESIAN_POINT('',(-9.000000000000002,50.0,5.0));
#465=DIRECTION('',(0.0,-1.0,0.0));
#466=VECTOR('',#465,100.0);
#467=LINE('',#464,#466);
#468=EDGE_CURVE('',#197,#355,#467,.T.);
#469=ORIENTED_EDGE('',*,*,#468,.F.);
#470=ORIENTED_EDGE('',*,*,#203,.T.);
#471=EDGE_LOOP('',(#462,#463,#469,#470));
#472=FACE_OUTER_BOUND('',#471,.T.);
#473=ADVANCED_FACE('',(#472),#461,.F.);
#474=CARTESIAN_POINT('',(-9.000000000000002,0.0,6.0));
#475=DIRECTION('',(0.0,1.0,0.0));
#476=DIRECTION('',(0.0,0.0,-1.0));
#477=AXIS2_PLACEMENT_3D('',#474,#475,#476);
#478=CYLINDRICAL_SURFACE('',#477,6.0);
#479=ORIENTED_EDGE('',*,*,#451,.T.);
#480=ORIENTED_EDGE('',*,*,#236,.F.);
#481=CARTESIAN_POINT('',(-9.000000000000002,-50.0,0.0));
#482=DIRECTION('',(0.0,1.0,0.0));
#483=VECTOR('',#482,100.0);
#484=LINE('',#481,#483);
#485=EDGE_CURVE('',#330,#222,#484,.T.);
#486=ORIENTED_EDGE('',*,*,#485,.F.);
#487=ORIENTED_EDGE('',*,*,#336,.T.);
#488=EDGE_LOOP('',(#479,#480,#486,#487));
#489=FACE_OUTER_BOUND('',#488,.T.);
#490=ADVANCED_FACE('',(#489),#478,.T.);
#491=CARTESIAN_POINT('',(-2.220446E-015,0.0,5.0));
#492=DIRECTION('',(0.0,0.0,1.0));
#493=DIRECTION('',(1.0,0.0,0.0));
#494=AXIS2_PLACEMENT_3D('',#491,#492,#493);
#495=PLANE('',#494);
#496=ORIENTED_EDGE('',*,*,#468,.T.);
#497=ORIENTED_EDGE('',*,*,#360,.F.);
#498=CARTESIAN_POINT('',(14.999999999999998,50.0,5.0));
#499=DIRECTION('',(0.0,-1.0,0.0));
#500=VECTOR('',#499,100.0);
#501=LINE('',#498,#500);
#502=EDGE_CURVE('',#206,#347,#501,.T.);
#503=ORIENTED_EDGE('',*,*,#502,.F.);
#504=ORIENTED_EDGE('',*,*,#211,.F.);
#505=EDGE_LOOP('',(#496,#497,#503,#504));
#506=FACE_OUTER_BOUND('',#505,.T.);
#507=ORIENTED_EDGE('',*,*,#112,.T.);
#508=EDGE_LOOP('',(#507));
#509=FACE_BOUND('',#508,.T.);
#510=ADVANCED_FACE('',(#506,#509),#495,.T.);
#511=CARTESIAN_POINT('',(14.999999999999998,50.0,0.0));
#512=DIRECTION('',(1.0,0.0,0.0));
#513=DIRECTION('',(0.0,0.0,-1.0));
#514=AXIS2_PLACEMENT_3D('',#511,#512,#513);
#515=PLANE('',#514);
#516=ORIENTED_EDGE('',*,*,#502,.T.);
#517=ORIENTED_EDGE('',*,*,#352,.F.);
#518=CARTESIAN_POINT('',(14.999999999999998,50.0,0.0));
#519=DIRECTION('',(0.0,-1.0,0.0));
#520=VECTOR('',#519,100.0);
#521=LINE('',#518,#520);
#522=EDGE_CURVE('',#214,#339,#521,.T.);
#523=ORIENTED_EDGE('',*,*,#522,.F.);
#524=ORIENTED_EDGE('',*,*,#219,.T.);
#525=EDGE_LOOP('',(#516,#517,#523,#524));
#526=FACE_OUTER_BOUND('',#525,.T.);
#527=ADVANCED_FACE('',(#526),#515,.T.);
#528=CARTESIAN_POINT('',(-2.220446E-015,0.0,0.0));
#529=DIRECTION('',(0.0,0.0,1.0));
#530=DIRECTION('',(1.0,0.0,0.0));
#531=AXIS2_PLACEMENT_3D('',#528,#529,#530);
#532=PLANE('',#531);
#533=ORIENTED_EDGE('',*,*,#485,.T.);
#534=ORIENTED_EDGE('',*,*,#227,.T.);
#535=ORIENTED_EDGE('',*,*,#522,.T.);
#536=ORIENTED_EDGE('',*,*,#344,.T.);
#537=EDGE_LOOP('',(#533,#534,#535,#536));
#538=FACE_OUTER_BOUND('',#537,.T.);
#539=ORIENTED_EDGE('',*,*,#101,.T.);
#540=EDGE_LOOP('',(#539));
#541=FACE_BOUND('',#540,.T.);
#542=ADVANCED_FACE('',(#538,#541),#532,.F.);
#543=CLOSED_SHELL('',(#116,#156,#255,#279,#303,#388,#405,#422,#439,#456,#473,#490,#510,#527,#542));
#544=MANIFOLD_SOLID_BREP('Volumenk\S\vrper1',#543);
#545=COLOUR_RGB('Metall - Stahl',0.639216005802155,0.639216005802155,0.686275005340576);
#546=FILL_AREA_STYLE_COLOUR('Metall - Stahl',#545);
#547=FILL_AREA_STYLE('Metall - Stahl',(#546));
#548=SURFACE_STYLE_FILL_AREA(#547);
#549=SURFACE_SIDE_STYLE('Metall - Stahl',(#548));
#550=SURFACE_STYLE_USAGE(.BOTH.,#549);
#551=PRESENTATION_STYLE_ASSIGNMENT((#550));
#552=STYLED_ITEM('',(#551),#544);
#553=MECHANICAL_DESIGN_GEOMETRIC_PRESENTATION_REPRESENTATION('',(#552),#36);
#554=ADVANCED_BREP_SHAPE_REPRESENTATION('ABSR',(#544),#36);
#555=SHAPE_REPRESENTATION_RELATIONSHIP('SRR','None',#554,#41);
ENDSEC;
END-ISO-10303-21;
