ISO-10303-21;
HEADER;
/* Generated by software containing ST-Developer
 * from STEP Tools, Inc. (www.steptools.com) 
 */

FILE_DESCRIPTION(
/* description */ (''),
/* implementation_level */ '2;1');

FILE_NAME(
/* name */ 'C:\\Users\\Gabriele\\Desktop\\catalogo\\TR40\\TR40110H.stp',

/* time_stamp */ '2016-10-17T15:22:41+02:00',
/* author */ ('Gabriele'),
/* organization */ (''),
/* preprocessor_version */ 'ST-DEVELOPER v16.5',
/* originating_system */ 'Autodesk Inventor 2017',
/* authorisation */ '');

FILE_SCHEMA (('AUTOMOTIVE_DESIGN { 1 0 10303 214 3 1 1 }'));
ENDSEC;

DATA;
#10=MECHANICAL_DESIGN_GEOMETRIC_PRESENTATION_REPRESENTATION('',(#13),#481);
#11=SHAPE_REPRESENTATION_RELATIONSHIP('SRR','None',#490,#12);
#12=ADVANCED_BREP_SHAPE_REPRESENTATION('',(#14),#480);
#13=STYLED_ITEM('',(#499),#14);
#14=MANIFOLD_SOLID_BREP('Solido1',#200);
#15=B_SPLINE_CURVE_WITH_KNOTS('',3,(#333,#334,#335,#336,#337,#338,#339,
#340,#341,#342,#343,#344,#345,#346,#347,#348,#349,#350,#351,#352,#353,#354,
#355,#356,#357,#358,#359,#360,#361,#362,#363,#364,#365,#366,#367,#368,#369,
#370,#371,#372,#373,#374,#375,#376,#377,#378,#379,#380,#381,#382,#383,#384,
#385,#386,#387,#388,#389,#390,#391,#392,#393,#394,#395,#396,#397,#398),
 .UNSPECIFIED.,.T.,.F.,(4,2,2,2,2,2,2,2,2,2,2,2,2,2,2,2,2,2,2,2,2,2,2,2,
2,2,2,2,2,2,2,2,4),(0.,0.71107068306518,1.42214136613036,2.13321204919554,
2.84428273226072,3.54713874695484,4.24999476164895,4.95285077634307,5.65570679103718,
6.3585628057313,7.06141882042541,7.76427483511953,8.46713084981364,9.17820153287882,
9.889272215944,10.6003428990092,11.3114135820744,12.0224842651395,12.7335549482047,
13.4446256312699,14.1556963143351,14.8585523290292,15.5614083437233,16.2642643584174,
16.9671203731115,17.6699763878057,18.3728324024998,19.0756884171939,19.778544431888,
20.4896151149532,21.2006857980184,21.9117564810836,22.6228271641487),
 .UNSPECIFIED.);
#16=B_SPLINE_CURVE_WITH_KNOTS('',3,(#409,#410,#411,#412,#413,#414,#415,
#416,#417,#418,#419,#420,#421,#422,#423,#424,#425,#426,#427,#428,#429,#430,
#431,#432,#433,#434,#435,#436,#437,#438,#439,#440,#441,#442,#443,#444,#445,
#446,#447,#448,#449,#450,#451,#452,#453,#454,#455,#456,#457,#458,#459,#460,
#461,#462,#463,#464,#465,#466,#467,#468,#469,#470,#471,#472,#473,#474),
 .UNSPECIFIED.,.T.,.F.,(4,2,2,2,2,2,2,2,2,2,2,2,2,2,2,2,2,2,2,2,2,2,2,2,
2,2,2,2,2,2,2,2,4),(0.,0.882253521674216,1.76450704334843,2.64676056502265,
3.52901408669686,4.39962533161614,5.27023657653541,6.14084782145468,7.01145906637396,
7.88207031129323,8.7526815562125,9.62329280113178,10.493904046051,11.3761575677253,
12.2584110893995,13.1406646110737,14.0229181327479,14.9051716544221,15.7874251760963,
16.6696786977706,17.5519322194448,18.422543464364,19.2931547092833,20.1637659542026,
21.0343771991219,21.9049884440411,22.7755996889604,23.6462109338797,24.516822178799,
25.3990757004732,26.2813292221474,27.1635827438216,28.0458362654958),
 .UNSPECIFIED.);
#17=PLANE('',#207);
#18=PLANE('',#214);
#19=PLANE('',#221);
#20=PLANE('',#228);
#21=PLANE('',#231);
#22=PLANE('',#232);
#23=CYLINDRICAL_SURFACE('',#205,55.);
#24=CYLINDRICAL_SURFACE('',#212,55.);
#25=CYLINDRICAL_SURFACE('',#219,37.5);
#26=CYLINDRICAL_SURFACE('',#223,36.);
#27=CYLINDRICAL_SURFACE('',#225,53.5);
#28=CYLINDRICAL_SURFACE('',#229,44.5);
#29=CYLINDRICAL_SURFACE('',#230,64.5);
#30=FACE_BOUND('',#65,.T.);
#31=FACE_BOUND('',#67,.T.);
#32=FACE_BOUND('',#69,.T.);
#33=FACE_BOUND('',#71,.T.);
#34=FACE_BOUND('',#73,.T.);
#35=FACE_BOUND('',#75,.T.);
#36=FACE_BOUND('',#77,.T.);
#37=FACE_BOUND('',#79,.T.);
#38=FACE_BOUND('',#81,.T.);
#39=FACE_BOUND('',#83,.T.);
#40=FACE_BOUND('',#85,.T.);
#41=FACE_BOUND('',#86,.T.);
#42=FACE_BOUND('',#88,.T.);
#43=FACE_BOUND('',#90,.T.);
#44=FACE_BOUND('',#92,.T.);
#45=FACE_BOUND('',#93,.T.);
#46=FACE_BOUND('',#95,.T.);
#47=FACE_BOUND('',#97,.T.);
#48=FACE_OUTER_BOUND('',#64,.T.);
#49=FACE_OUTER_BOUND('',#66,.T.);
#50=FACE_OUTER_BOUND('',#68,.T.);
#51=FACE_OUTER_BOUND('',#70,.T.);
#52=FACE_OUTER_BOUND('',#72,.T.);
#53=FACE_OUTER_BOUND('',#74,.T.);
#54=FACE_OUTER_BOUND('',#76,.T.);
#55=FACE_OUTER_BOUND('',#78,.T.);
#56=FACE_OUTER_BOUND('',#80,.T.);
#57=FACE_OUTER_BOUND('',#82,.T.);
#58=FACE_OUTER_BOUND('',#84,.T.);
#59=FACE_OUTER_BOUND('',#87,.T.);
#60=FACE_OUTER_BOUND('',#89,.T.);
#61=FACE_OUTER_BOUND('',#91,.T.);
#62=FACE_OUTER_BOUND('',#94,.T.);
#63=FACE_OUTER_BOUND('',#96,.T.);
#64=EDGE_LOOP('',(#147));
#65=EDGE_LOOP('',(#148));
#66=EDGE_LOOP('',(#149));
#67=EDGE_LOOP('',(#150));
#68=EDGE_LOOP('',(#151));
#69=EDGE_LOOP('',(#152));
#70=EDGE_LOOP('',(#153));
#71=EDGE_LOOP('',(#154));
#72=EDGE_LOOP('',(#155));
#73=EDGE_LOOP('',(#156));
#74=EDGE_LOOP('',(#157));
#75=EDGE_LOOP('',(#158));
#76=EDGE_LOOP('',(#159));
#77=EDGE_LOOP('',(#160));
#78=EDGE_LOOP('',(#161));
#79=EDGE_LOOP('',(#162));
#80=EDGE_LOOP('',(#163));
#81=EDGE_LOOP('',(#164));
#82=EDGE_LOOP('',(#165));
#83=EDGE_LOOP('',(#166));
#84=EDGE_LOOP('',(#167));
#85=EDGE_LOOP('',(#168));
#86=EDGE_LOOP('',(#169));
#87=EDGE_LOOP('',(#170));
#88=EDGE_LOOP('',(#171));
#89=EDGE_LOOP('',(#172));
#90=EDGE_LOOP('',(#173));
#91=EDGE_LOOP('',(#174));
#92=EDGE_LOOP('',(#175));
#93=EDGE_LOOP('',(#176));
#94=EDGE_LOOP('',(#177));
#95=EDGE_LOOP('',(#178));
#96=EDGE_LOOP('',(#179));
#97=EDGE_LOOP('',(#180));
#98=CIRCLE('',#203,55.);
#99=CIRCLE('',#204,55.5);
#100=CIRCLE('',#206,55.);
#101=CIRCLE('',#208,64.5);
#102=CIRCLE('',#210,55.);
#103=CIRCLE('',#211,55.5);
#104=CIRCLE('',#213,55.);
#105=CIRCLE('',#215,64.5);
#106=CIRCLE('',#217,37.5);
#107=CIRCLE('',#218,38.);
#108=CIRCLE('',#220,37.5);
#109=CIRCLE('',#222,44.5);
#110=CIRCLE('',#224,36.);
#111=CIRCLE('',#226,53.5);
#112=CIRCLE('',#227,53.5);
#113=VERTEX_POINT('',#299);
#114=VERTEX_POINT('',#301);
#115=VERTEX_POINT('',#304);
#116=VERTEX_POINT('',#307);
#117=VERTEX_POINT('',#310);
#118=VERTEX_POINT('',#312);
#119=VERTEX_POINT('',#315);
#120=VERTEX_POINT('',#318);
#121=VERTEX_POINT('',#321);
#122=VERTEX_POINT('',#323);
#123=VERTEX_POINT('',#326);
#124=VERTEX_POINT('',#329);
#125=VERTEX_POINT('',#332);
#126=VERTEX_POINT('',#399);
#127=VERTEX_POINT('',#402);
#128=VERTEX_POINT('',#404);
#129=VERTEX_POINT('',#408);
#130=EDGE_CURVE('',#113,#113,#98,.T.);
#131=EDGE_CURVE('',#114,#114,#99,.T.);
#132=EDGE_CURVE('',#115,#115,#100,.T.);
#133=EDGE_CURVE('',#116,#116,#101,.T.);
#134=EDGE_CURVE('',#117,#117,#102,.T.);
#135=EDGE_CURVE('',#118,#118,#103,.T.);
#136=EDGE_CURVE('',#119,#119,#104,.T.);
#137=EDGE_CURVE('',#120,#120,#105,.T.);
#138=EDGE_CURVE('',#121,#121,#106,.T.);
#139=EDGE_CURVE('',#122,#122,#107,.T.);
#140=EDGE_CURVE('',#123,#123,#108,.T.);
#141=EDGE_CURVE('',#124,#124,#109,.T.);
#142=EDGE_CURVE('',#125,#125,#15,.T.);
#143=EDGE_CURVE('',#126,#126,#110,.T.);
#144=EDGE_CURVE('',#127,#127,#111,.T.);
#145=EDGE_CURVE('',#128,#128,#112,.T.);
#146=EDGE_CURVE('',#129,#129,#16,.T.);
#147=ORIENTED_EDGE('',*,*,#130,.T.);
#148=ORIENTED_EDGE('',*,*,#131,.T.);
#149=ORIENTED_EDGE('',*,*,#132,.T.);
#150=ORIENTED_EDGE('',*,*,#130,.F.);
#151=ORIENTED_EDGE('',*,*,#133,.T.);
#152=ORIENTED_EDGE('',*,*,#131,.F.);
#153=ORIENTED_EDGE('',*,*,#134,.T.);
#154=ORIENTED_EDGE('',*,*,#135,.T.);
#155=ORIENTED_EDGE('',*,*,#136,.F.);
#156=ORIENTED_EDGE('',*,*,#134,.F.);
#157=ORIENTED_EDGE('',*,*,#137,.T.);
#158=ORIENTED_EDGE('',*,*,#135,.F.);
#159=ORIENTED_EDGE('',*,*,#138,.T.);
#160=ORIENTED_EDGE('',*,*,#139,.T.);
#161=ORIENTED_EDGE('',*,*,#140,.T.);
#162=ORIENTED_EDGE('',*,*,#138,.F.);
#163=ORIENTED_EDGE('',*,*,#141,.F.);
#164=ORIENTED_EDGE('',*,*,#139,.F.);
#165=ORIENTED_EDGE('',*,*,#142,.F.);
#166=ORIENTED_EDGE('',*,*,#143,.F.);
#167=ORIENTED_EDGE('',*,*,#144,.F.);
#168=ORIENTED_EDGE('',*,*,#142,.T.);
#169=ORIENTED_EDGE('',*,*,#145,.F.);
#170=ORIENTED_EDGE('',*,*,#140,.F.);
#171=ORIENTED_EDGE('',*,*,#143,.T.);
#172=ORIENTED_EDGE('',*,*,#141,.T.);
#173=ORIENTED_EDGE('',*,*,#146,.F.);
#174=ORIENTED_EDGE('',*,*,#133,.F.);
#175=ORIENTED_EDGE('',*,*,#137,.F.);
#176=ORIENTED_EDGE('',*,*,#146,.T.);
#177=ORIENTED_EDGE('',*,*,#136,.T.);
#178=ORIENTED_EDGE('',*,*,#145,.T.);
#179=ORIENTED_EDGE('',*,*,#132,.F.);
#180=ORIENTED_EDGE('',*,*,#144,.T.);
#181=TOROIDAL_SURFACE('',#202,55.5,0.5);
#182=TOROIDAL_SURFACE('',#209,55.5,0.5);
#183=TOROIDAL_SURFACE('',#216,38.,0.5);
#184=ADVANCED_FACE('',(#48,#30),#181,.T.);
#185=ADVANCED_FACE('',(#49,#31),#23,.F.);
#186=ADVANCED_FACE('',(#50,#32),#17,.T.);
#187=ADVANCED_FACE('',(#51,#33),#182,.T.);
#188=ADVANCED_FACE('',(#52,#34),#24,.F.);
#189=ADVANCED_FACE('',(#53,#35),#18,.F.);
#190=ADVANCED_FACE('',(#54,#36),#183,.T.);
#191=ADVANCED_FACE('',(#55,#37),#25,.F.);
#192=ADVANCED_FACE('',(#56,#38),#19,.T.);
#193=ADVANCED_FACE('',(#57,#39),#26,.F.);
#194=ADVANCED_FACE('',(#58,#40,#41),#27,.F.);
#195=ADVANCED_FACE('',(#59,#42),#20,.T.);
#196=ADVANCED_FACE('',(#60,#43),#28,.T.);
#197=ADVANCED_FACE('',(#61,#44,#45),#29,.T.);
#198=ADVANCED_FACE('',(#62,#46),#21,.F.);
#199=ADVANCED_FACE('',(#63,#47),#22,.T.);
#200=CLOSED_SHELL('',(#184,#185,#186,#187,#188,#189,#190,#191,#192,#193,
#194,#195,#196,#197,#198,#199));
#201=AXIS2_PLACEMENT_3D('placement',#297,#233,#234);
#202=AXIS2_PLACEMENT_3D('',#298,#235,#236);
#203=AXIS2_PLACEMENT_3D('',#300,#237,#238);
#204=AXIS2_PLACEMENT_3D('',#302,#239,#240);
#205=AXIS2_PLACEMENT_3D('',#303,#241,#242);
#206=AXIS2_PLACEMENT_3D('',#305,#243,#244);
#207=AXIS2_PLACEMENT_3D('',#306,#245,#246);
#208=AXIS2_PLACEMENT_3D('',#308,#247,#248);
#209=AXIS2_PLACEMENT_3D('',#309,#249,#250);
#210=AXIS2_PLACEMENT_3D('',#311,#251,#252);
#211=AXIS2_PLACEMENT_3D('',#313,#253,#254);
#212=AXIS2_PLACEMENT_3D('',#314,#255,#256);
#213=AXIS2_PLACEMENT_3D('',#316,#257,#258);
#214=AXIS2_PLACEMENT_3D('',#317,#259,#260);
#215=AXIS2_PLACEMENT_3D('',#319,#261,#262);
#216=AXIS2_PLACEMENT_3D('',#320,#263,#264);
#217=AXIS2_PLACEMENT_3D('',#322,#265,#266);
#218=AXIS2_PLACEMENT_3D('',#324,#267,#268);
#219=AXIS2_PLACEMENT_3D('',#325,#269,#270);
#220=AXIS2_PLACEMENT_3D('',#327,#271,#272);
#221=AXIS2_PLACEMENT_3D('',#328,#273,#274);
#222=AXIS2_PLACEMENT_3D('',#330,#275,#276);
#223=AXIS2_PLACEMENT_3D('',#331,#277,#278);
#224=AXIS2_PLACEMENT_3D('',#400,#279,#280);
#225=AXIS2_PLACEMENT_3D('',#401,#281,#282);
#226=AXIS2_PLACEMENT_3D('',#403,#283,#284);
#227=AXIS2_PLACEMENT_3D('',#405,#285,#286);
#228=AXIS2_PLACEMENT_3D('',#406,#287,#288);
#229=AXIS2_PLACEMENT_3D('',#407,#289,#290);
#230=AXIS2_PLACEMENT_3D('',#475,#291,#292);
#231=AXIS2_PLACEMENT_3D('',#476,#293,#294);
#232=AXIS2_PLACEMENT_3D('',#477,#295,#296);
#233=DIRECTION('axis',(0.,0.,1.));
#234=DIRECTION('refdir',(1.,0.,0.));
#235=DIRECTION('center_axis',(0.,0.,-1.));
#236=DIRECTION('ref_axis',(-1.,0.,0.));
#237=DIRECTION('center_axis',(0.,0.,-1.));
#238=DIRECTION('ref_axis',(-1.,0.,0.));
#239=DIRECTION('center_axis',(0.,0.,1.));
#240=DIRECTION('ref_axis',(-1.,0.,0.));
#241=DIRECTION('center_axis',(0.,0.,-1.));
#242=DIRECTION('ref_axis',(-1.,0.,0.));
#243=DIRECTION('center_axis',(0.,0.,-1.));
#244=DIRECTION('ref_axis',(-1.,0.,0.));
#245=DIRECTION('center_axis',(0.,0.,1.));
#246=DIRECTION('ref_axis',(1.,0.,0.));
#247=DIRECTION('center_axis',(0.,0.,1.));
#248=DIRECTION('ref_axis',(-1.,0.,0.));
#249=DIRECTION('center_axis',(0.,0.,1.));
#250=DIRECTION('ref_axis',(1.,0.,0.));
#251=DIRECTION('center_axis',(0.,0.,1.));
#252=DIRECTION('ref_axis',(-1.,0.,0.));
#253=DIRECTION('center_axis',(0.,0.,-1.));
#254=DIRECTION('ref_axis',(-1.,0.,0.));
#255=DIRECTION('center_axis',(0.,0.,-1.));
#256=DIRECTION('ref_axis',(-1.,0.,0.));
#257=DIRECTION('center_axis',(0.,0.,-1.));
#258=DIRECTION('ref_axis',(-1.,0.,0.));
#259=DIRECTION('center_axis',(0.,0.,1.));
#260=DIRECTION('ref_axis',(1.,0.,0.));
#261=DIRECTION('center_axis',(0.,0.,-1.));
#262=DIRECTION('ref_axis',(-1.,0.,0.));
#263=DIRECTION('center_axis',(0.,-1.,0.));
#264=DIRECTION('ref_axis',(0.,0.,-1.));
#265=DIRECTION('center_axis',(0.,-1.,0.));
#266=DIRECTION('ref_axis',(-1.,0.,0.));
#267=DIRECTION('center_axis',(0.,1.,0.));
#268=DIRECTION('ref_axis',(-1.,0.,0.));
#269=DIRECTION('center_axis',(0.,-1.,0.));
#270=DIRECTION('ref_axis',(-1.,0.,0.));
#271=DIRECTION('center_axis',(0.,-1.,0.));
#272=DIRECTION('ref_axis',(-1.,0.,0.));
#273=DIRECTION('center_axis',(0.,1.,0.));
#274=DIRECTION('ref_axis',(0.,0.,1.));
#275=DIRECTION('center_axis',(0.,-1.,0.));
#276=DIRECTION('ref_axis',(1.,0.,0.));
#277=DIRECTION('center_axis',(0.,-1.,0.));
#278=DIRECTION('ref_axis',(-1.,0.,0.));
#279=DIRECTION('center_axis',(0.,-1.,0.));
#280=DIRECTION('ref_axis',(-1.,0.,0.));
#281=DIRECTION('center_axis',(0.,0.,1.));
#282=DIRECTION('ref_axis',(1.,0.,0.));
#283=DIRECTION('center_axis',(0.,0.,-1.));
#284=DIRECTION('ref_axis',(1.,0.,0.));
#285=DIRECTION('center_axis',(0.,0.,1.));
#286=DIRECTION('ref_axis',(1.,0.,0.));
#287=DIRECTION('center_axis',(0.,1.,0.));
#288=DIRECTION('ref_axis',(0.,0.,1.));
#289=DIRECTION('center_axis',(0.,-1.,0.));
#290=DIRECTION('ref_axis',(1.,0.,0.));
#291=DIRECTION('center_axis',(0.,0.,1.));
#292=DIRECTION('ref_axis',(-1.,0.,0.));
#293=DIRECTION('center_axis',(0.,0.,1.));
#294=DIRECTION('ref_axis',(1.,0.,0.));
#295=DIRECTION('center_axis',(0.,0.,1.));
#296=DIRECTION('ref_axis',(1.,0.,0.));
#297=CARTESIAN_POINT('',(0.,0.,0.));
#298=CARTESIAN_POINT('Origin',(0.,0.,117.5));
#299=CARTESIAN_POINT('',(55.,-6.73555739531044E-15,117.5));
#300=CARTESIAN_POINT('Origin',(0.,0.,117.5));
#301=CARTESIAN_POINT('',(55.5,6.79678973526781E-15,118.));
#302=CARTESIAN_POINT('Origin',(0.,0.,118.));
#303=CARTESIAN_POINT('Origin',(0.,0.,118.));
#304=CARTESIAN_POINT('',(55.,6.73555739531044E-15,57.));
#305=CARTESIAN_POINT('Origin',(0.,0.,57.));
#306=CARTESIAN_POINT('Origin',(-6.16633087748822E-15,9.18013870491085E-16,
118.));
#307=CARTESIAN_POINT('',(64.5,7.89897185450043E-15,118.));
#308=CARTESIAN_POINT('Origin',(0.,0.,118.));
#309=CARTESIAN_POINT('Origin',(0.,0.,-117.5));
#310=CARTESIAN_POINT('',(55.,6.73555739531044E-15,-117.5));
#311=CARTESIAN_POINT('Origin',(0.,0.,-117.5));
#312=CARTESIAN_POINT('',(55.5,-6.79678973526781E-15,-118.));
#313=CARTESIAN_POINT('Origin',(0.,0.,-118.));
#314=CARTESIAN_POINT('Origin',(0.,0.,-118.));
#315=CARTESIAN_POINT('',(55.,6.73555739531044E-15,-57.));
#316=CARTESIAN_POINT('Origin',(0.,0.,-57.));
#317=CARTESIAN_POINT('Origin',(-6.16633087748822E-15,9.18013870491085E-16,
-118.));
#318=CARTESIAN_POINT('',(64.5,7.89897185450043E-15,-118.));
#319=CARTESIAN_POINT('Origin',(0.,0.,-118.));
#320=CARTESIAN_POINT('Origin',(0.,100.5,0.));
#321=CARTESIAN_POINT('',(37.5,100.5,4.59242549680258E-15));
#322=CARTESIAN_POINT('Origin',(0.,100.5,0.));
#323=CARTESIAN_POINT('',(38.,101.,-4.65365783675994E-15));
#324=CARTESIAN_POINT('Origin',(0.,101.,0.));
#325=CARTESIAN_POINT('Origin',(0.,101.,0.));
#326=CARTESIAN_POINT('',(37.5,57.,-4.59242549680258E-15));
#327=CARTESIAN_POINT('Origin',(0.,57.,0.));
#328=CARTESIAN_POINT('Origin',(4.44595297693156E-15,101.,0.));
#329=CARTESIAN_POINT('',(-44.5,101.,5.44967825620572E-15));
#330=CARTESIAN_POINT('Origin',(0.,101.,0.));
#331=CARTESIAN_POINT('Origin',(0.,57.,0.));
#332=CARTESIAN_POINT('',(36.,39.5758764906098,-5.55111512312578E-16));
#333=CARTESIAN_POINT('Ctrl Pts',(36.,39.5758764906098,-5.55111512312578E-16));
#334=CARTESIAN_POINT('Ctrl Pts',(36.,39.5758764906098,-2.37023561021727));
#335=CARTESIAN_POINT('Ctrl Pts',(35.7627794380821,39.7954223529033,-4.7758481524464));
#336=CARTESIAN_POINT('Ctrl Pts',(34.8095897595285,40.6318162285384,-9.4909211327189));
#337=CARTESIAN_POINT('Ctrl Pts',(34.0941985819602,41.2459663932896,-11.8009765473415));
#338=CARTESIAN_POINT('Ctrl Pts',(32.2414230640456,42.7098868919726,-16.191617131078));
#339=CARTESIAN_POINT('Ctrl Pts',(31.1024594982923,43.5586435048077,-18.2768753857285));
#340=CARTESIAN_POINT('Ctrl Pts',(28.4927185371105,45.3087563386031,-22.1262773987838));
#341=CARTESIAN_POINT('Ctrl Pts',(27.0212344648305,46.2089867657949,-23.8904537806009));
#342=CARTESIAN_POINT('Ctrl Pts',(23.9085380060344,47.8928660258113,-27.003150239397));
#343=CARTESIAN_POINT('Ctrl Pts',(22.1541266915949,48.7418694973499,-28.4712481727112));
#344=CARTESIAN_POINT('Ctrl Pts',(18.3035069169904,50.3145784643727,-31.0869576665639));
#345=CARTESIAN_POINT('Ctrl Pts',(16.2070464686048,51.0374088980922,-32.2347243258768));
#346=CARTESIAN_POINT('Ctrl Pts',(11.7902463989419,52.2348119170372,-34.0989141397533));
#347=CARTESIAN_POINT('Ctrl Pts',(9.46518284350164,52.7099477488039,-34.8168704347798));
#348=CARTESIAN_POINT('Ctrl Pts',(4.74154984786612,53.3427219311057,-35.7676090648667));
#349=CARTESIAN_POINT('Ctrl Pts',(2.34285338231371,53.5,-36.));
#350=CARTESIAN_POINT('Ctrl Pts',(-2.34285338231372,53.5,-36.));
#351=CARTESIAN_POINT('Ctrl Pts',(-4.74154984786612,53.3427219311057,-35.7676090648667));
#352=CARTESIAN_POINT('Ctrl Pts',(-9.46518284350164,52.7099477488039,-34.8168704347798));
#353=CARTESIAN_POINT('Ctrl Pts',(-11.7902463989419,52.2348119170372,-34.0989141397533));
#354=CARTESIAN_POINT('Ctrl Pts',(-16.2070464686048,51.0374088980922,-32.2347243258768));
#355=CARTESIAN_POINT('Ctrl Pts',(-18.3035069169905,50.3145784643727,-31.0869576665639));
#356=CARTESIAN_POINT('Ctrl Pts',(-22.1541266915949,48.7418694973499,-28.4712481727112));
#357=CARTESIAN_POINT('Ctrl Pts',(-23.9085380060344,47.8928660258113,-27.003150239397));
#358=CARTESIAN_POINT('Ctrl Pts',(-27.0212344648305,46.2089867657949,-23.8904537806009));
#359=CARTESIAN_POINT('Ctrl Pts',(-28.4927185371105,45.3087563386031,-22.1262773987838));
#360=CARTESIAN_POINT('Ctrl Pts',(-31.1024594982923,43.5586435048077,-18.2768753857285));
#361=CARTESIAN_POINT('Ctrl Pts',(-32.2414230640456,42.7098868919726,-16.191617131078));
#362=CARTESIAN_POINT('Ctrl Pts',(-34.0941985819602,41.2459663932896,-11.8009765473415));
#363=CARTESIAN_POINT('Ctrl Pts',(-34.8095897595285,40.6318162285384,-9.49092113271888));
#364=CARTESIAN_POINT('Ctrl Pts',(-35.7627794380821,39.7954223529033,-4.77584815244638));
#365=CARTESIAN_POINT('Ctrl Pts',(-36.,39.5758764906098,-2.37023561021726));
#366=CARTESIAN_POINT('Ctrl Pts',(-36.,39.5758764906098,2.37023561021726));
#367=CARTESIAN_POINT('Ctrl Pts',(-35.7627794380821,39.7954223529033,4.77584815244638));
#368=CARTESIAN_POINT('Ctrl Pts',(-34.8095897595285,40.6318162285384,9.49092113271888));
#369=CARTESIAN_POINT('Ctrl Pts',(-34.0941985819602,41.2459663932896,11.8009765473415));
#370=CARTESIAN_POINT('Ctrl Pts',(-32.2414230640456,42.7098868919726,16.191617131078));
#371=CARTESIAN_POINT('Ctrl Pts',(-31.1024594982923,43.5586435048077,18.2768753857285));
#372=CARTESIAN_POINT('Ctrl Pts',(-28.4927185371105,45.3087563386031,22.1262773987838));
#373=CARTESIAN_POINT('Ctrl Pts',(-27.0212344648305,46.2089867657949,23.8904537806009));
#374=CARTESIAN_POINT('Ctrl Pts',(-23.9085380060344,47.8928660258113,27.003150239397));
#375=CARTESIAN_POINT('Ctrl Pts',(-22.1541266915949,48.7418694973499,28.4712481727112));
#376=CARTESIAN_POINT('Ctrl Pts',(-18.3035069169904,50.3145784643727,31.0869576665639));
#377=CARTESIAN_POINT('Ctrl Pts',(-16.2070464686048,51.0374088980922,32.2347243258768));
#378=CARTESIAN_POINT('Ctrl Pts',(-11.7902463989419,52.2348119170372,34.0989141397533));
#379=CARTESIAN_POINT('Ctrl Pts',(-9.46518284350165,52.7099477488039,34.8168704347798));
#380=CARTESIAN_POINT('Ctrl Pts',(-4.74154984786613,53.3427219311057,35.7676090648667));
#381=CARTESIAN_POINT('Ctrl Pts',(-2.34285338231372,53.5,36.));
#382=CARTESIAN_POINT('Ctrl Pts',(2.34285338231371,53.5,36.));
#383=CARTESIAN_POINT('Ctrl Pts',(4.7415498478661,53.3427219311057,35.7676090648667));
#384=CARTESIAN_POINT('Ctrl Pts',(9.46518284350162,52.7099477488039,34.8168704347798));
#385=CARTESIAN_POINT('Ctrl Pts',(11.7902463989419,52.2348119170372,34.0989141397533));
#386=CARTESIAN_POINT('Ctrl Pts',(16.2070464686048,51.0374088980923,32.2347243258768));
#387=CARTESIAN_POINT('Ctrl Pts',(18.3035069169905,50.3145784643727,31.0869576665639));
#388=CARTESIAN_POINT('Ctrl Pts',(22.1541266915949,48.7418694973499,28.4712481727112));
#389=CARTESIAN_POINT('Ctrl Pts',(23.9085380060344,47.8928660258113,27.003150239397));
#390=CARTESIAN_POINT('Ctrl Pts',(27.0212344648305,46.2089867657949,23.8904537806009));
#391=CARTESIAN_POINT('Ctrl Pts',(28.4927185371105,45.3087563386031,22.1262773987838));
#392=CARTESIAN_POINT('Ctrl Pts',(31.1024594982923,43.5586435048077,18.2768753857285));
#393=CARTESIAN_POINT('Ctrl Pts',(32.2414230640456,42.7098868919726,16.191617131078));
#394=CARTESIAN_POINT('Ctrl Pts',(34.0941985819602,41.2459663932896,11.8009765473415));
#395=CARTESIAN_POINT('Ctrl Pts',(34.8095897595285,40.6318162285384,9.4909211327189));
#396=CARTESIAN_POINT('Ctrl Pts',(35.7627794380821,39.7954223529033,4.7758481524464));
#397=CARTESIAN_POINT('Ctrl Pts',(36.,39.5758764906098,2.37023561021727));
#398=CARTESIAN_POINT('Ctrl Pts',(36.,39.5758764906098,5.55111512312578E-16));
#399=CARTESIAN_POINT('',(36.,57.,-4.40872847693047E-15));
#400=CARTESIAN_POINT('Origin',(0.,57.,0.));
#401=CARTESIAN_POINT('Origin',(0.,0.,-57.));
#402=CARTESIAN_POINT('',(-53.5,6.55186037543834E-15,57.));
#403=CARTESIAN_POINT('Origin',(0.,0.,57.));
#404=CARTESIAN_POINT('',(-53.5,6.55186037543834E-15,-57.));
#405=CARTESIAN_POINT('Origin',(0.,0.,-57.));
#406=CARTESIAN_POINT('Origin',(-3.54066983922288E-15,57.,7.89491928622334E-16));
#407=CARTESIAN_POINT('Origin',(0.,101.,0.));
#408=CARTESIAN_POINT('',(44.5,46.690470119715,-1.11022302462516E-15));
#409=CARTESIAN_POINT('Ctrl Pts',(44.5,46.690470119715,-1.11022302462516E-15));
#410=CARTESIAN_POINT('Ctrl Pts',(44.5,46.690470119715,2.94084507224738));
#411=CARTESIAN_POINT('Ctrl Pts',(44.2047237349933,46.9769657462518,5.91977437133602));
#412=CARTESIAN_POINT('Ctrl Pts',(43.0232795402827,48.0613183534122,11.7515426313222));
#413=CARTESIAN_POINT('Ctrl Pts',(42.1378419295703,48.8554247604025,14.605226266905));
#414=CARTESIAN_POINT('Ctrl Pts',(39.8475218160487,50.7407605657634,20.0271304462709));
#415=CARTESIAN_POINT('Ctrl Pts',(38.440658258691,51.8306806433836,22.6011015973374));
#416=CARTESIAN_POINT('Ctrl Pts',(35.2174667646388,54.0724855890172,27.3536841398421));
#417=CARTESIAN_POINT('Ctrl Pts',(33.4002106755951,55.2230413820939,29.5322928500077));
#418=CARTESIAN_POINT('Ctrl Pts',(29.5578135017731,57.3704222221813,33.3746900238297));
#419=CARTESIAN_POINT('Ctrl Pts',(27.393144878309,58.4509674129486,35.1870097235512));
#420=CARTESIAN_POINT('Ctrl Pts',(22.6393490519375,60.4513014935775,38.4183538793809));
#421=CARTESIAN_POINT('Ctrl Pts',(20.0498951688326,61.3700243854358,39.8375575371934));
#422=CARTESIAN_POINT('Ctrl Pts',(14.5912200542704,62.8917683591554,42.1441058766449));
#423=CARTESIAN_POINT('Ctrl Pts',(11.7160923356691,63.4955470707997,43.0333567212586));
#424=CARTESIAN_POINT('Ctrl Pts',(5.8715818809604,64.2998899199228,44.2115498100095));
#425=CARTESIAN_POINT('Ctrl Pts',(2.90203748306425,64.5,44.5));
#426=CARTESIAN_POINT('Ctrl Pts',(-2.90203748306424,64.5,44.5));
#427=CARTESIAN_POINT('Ctrl Pts',(-5.8715818809604,64.2998899199227,44.2115498100095));
#428=CARTESIAN_POINT('Ctrl Pts',(-11.7160923356691,63.4955470707997,43.0333567212586));
#429=CARTESIAN_POINT('Ctrl Pts',(-14.5912200542704,62.8917683591554,42.1441058766449));
#430=CARTESIAN_POINT('Ctrl Pts',(-20.0498951688326,61.3700243854358,39.8375575371934));
#431=CARTESIAN_POINT('Ctrl Pts',(-22.6393490519375,60.4513014935775,38.4183538793809));
#432=CARTESIAN_POINT('Ctrl Pts',(-27.393144878309,58.4509674129486,35.1870097235512));
#433=CARTESIAN_POINT('Ctrl Pts',(-29.5578135017731,57.3704222221813,33.3746900238297));
#434=CARTESIAN_POINT('Ctrl Pts',(-33.400210675595,55.2230413820939,29.5322928500077));
#435=CARTESIAN_POINT('Ctrl Pts',(-35.2174667646388,54.0724855890172,27.3536841398421));
#436=CARTESIAN_POINT('Ctrl Pts',(-38.440658258691,51.8306806433836,22.6011015973374));
#437=CARTESIAN_POINT('Ctrl Pts',(-39.8475218160487,50.7407605657634,20.0271304462709));
#438=CARTESIAN_POINT('Ctrl Pts',(-42.1378419295703,48.8554247604025,14.605226266905));
#439=CARTESIAN_POINT('Ctrl Pts',(-43.0232795402827,48.0613183534122,11.7515426313222));
#440=CARTESIAN_POINT('Ctrl Pts',(-44.2047237349933,46.9769657462518,5.91977437133602));
#441=CARTESIAN_POINT('Ctrl Pts',(-44.5,46.690470119715,2.94084507224738));
#442=CARTESIAN_POINT('Ctrl Pts',(-44.5,46.690470119715,-2.94084507224738));
#443=CARTESIAN_POINT('Ctrl Pts',(-44.2047237349933,46.9769657462518,-5.91977437133602));
#444=CARTESIAN_POINT('Ctrl Pts',(-43.0232795402827,48.0613183534122,-11.7515426313222));
#445=CARTESIAN_POINT('Ctrl Pts',(-42.1378419295703,48.8554247604025,-14.605226266905));
#446=CARTESIAN_POINT('Ctrl Pts',(-39.8475218160487,50.7407605657634,-20.0271304462709));
#447=CARTESIAN_POINT('Ctrl Pts',(-38.440658258691,51.8306806433836,-22.6011015973374));
#448=CARTESIAN_POINT('Ctrl Pts',(-35.2174667646388,54.0724855890172,-27.3536841398421));
#449=CARTESIAN_POINT('Ctrl Pts',(-33.4002106755951,55.2230413820939,-29.5322928500077));
#450=CARTESIAN_POINT('Ctrl Pts',(-29.5578135017731,57.3704222221813,-33.3746900238297));
#451=CARTESIAN_POINT('Ctrl Pts',(-27.393144878309,58.4509674129486,-35.1870097235512));
#452=CARTESIAN_POINT('Ctrl Pts',(-22.6393490519375,60.4513014935775,-38.4183538793809));
#453=CARTESIAN_POINT('Ctrl Pts',(-20.0498951688326,61.3700243854358,-39.8375575371934));
#454=CARTESIAN_POINT('Ctrl Pts',(-14.5912200542704,62.8917683591554,-42.1441058766449));
#455=CARTESIAN_POINT('Ctrl Pts',(-11.7160923356691,63.4955470707997,-43.0333567212586));
#456=CARTESIAN_POINT('Ctrl Pts',(-5.87158188096042,64.2998899199228,-44.2115498100095));
#457=CARTESIAN_POINT('Ctrl Pts',(-2.90203748306426,64.5,-44.5));
#458=CARTESIAN_POINT('Ctrl Pts',(2.90203748306424,64.5,-44.5));
#459=CARTESIAN_POINT('Ctrl Pts',(5.8715818809604,64.2998899199228,-44.2115498100095));
#460=CARTESIAN_POINT('Ctrl Pts',(11.7160923356691,63.4955470707997,-43.0333567212585));
#461=CARTESIAN_POINT('Ctrl Pts',(14.5912200542704,62.8917683591554,-42.1441058766449));
#462=CARTESIAN_POINT('Ctrl Pts',(20.0498951688326,61.3700243854358,-39.8375575371934));
#463=CARTESIAN_POINT('Ctrl Pts',(22.6393490519375,60.4513014935775,-38.4183538793809));
#464=CARTESIAN_POINT('Ctrl Pts',(27.393144878309,58.4509674129486,-35.1870097235512));
#465=CARTESIAN_POINT('Ctrl Pts',(29.5578135017731,57.3704222221813,-33.3746900238297));
#466=CARTESIAN_POINT('Ctrl Pts',(33.400210675595,55.2230413820939,-29.5322928500077));
#467=CARTESIAN_POINT('Ctrl Pts',(35.2174667646388,54.0724855890172,-27.3536841398421));
#468=CARTESIAN_POINT('Ctrl Pts',(38.440658258691,51.8306806433836,-22.6011015973374));
#469=CARTESIAN_POINT('Ctrl Pts',(39.8475218160487,50.7407605657634,-20.0271304462709));
#470=CARTESIAN_POINT('Ctrl Pts',(42.1378419295703,48.8554247604025,-14.605226266905));
#471=CARTESIAN_POINT('Ctrl Pts',(43.0232795402827,48.0613183534122,-11.7515426313222));
#472=CARTESIAN_POINT('Ctrl Pts',(44.2047237349933,46.9769657462518,-5.91977437133602));
#473=CARTESIAN_POINT('Ctrl Pts',(44.5,46.690470119715,-2.94084507224738));
#474=CARTESIAN_POINT('Ctrl Pts',(44.5,46.690470119715,2.22044604925031E-15));
#475=CARTESIAN_POINT('Origin',(0.,0.,0.));
#476=CARTESIAN_POINT('Origin',(-4.86761606027648E-15,0.,-57.));
#477=CARTESIAN_POINT('Origin',(-4.86761606027648E-15,0.,57.));
#478=UNCERTAINTY_MEASURE_WITH_UNIT(LENGTH_MEASURE(0.01),#482,
'DISTANCE_ACCURACY_VALUE',
'Maximum model space distance between geometric entities at asserted c
onnectivities');
#479=UNCERTAINTY_MEASURE_WITH_UNIT(LENGTH_MEASURE(1.E-6),#482,
'DISTANCE_ACCURACY_VALUE',
'Maximum model space distance between geometric entities at asserted c
onnectivities');
#480=(
GEOMETRIC_REPRESENTATION_CONTEXT(3)
GLOBAL_UNCERTAINTY_ASSIGNED_CONTEXT((#478))
GLOBAL_UNIT_ASSIGNED_CONTEXT((#482,#485,#483))
REPRESENTATION_CONTEXT('','3D')
);
#481=(
GEOMETRIC_REPRESENTATION_CONTEXT(3)
GLOBAL_UNCERTAINTY_ASSIGNED_CONTEXT((#479))
GLOBAL_UNIT_ASSIGNED_CONTEXT((#482,#485,#483))
REPRESENTATION_CONTEXT('','3D')
);
#482=(
LENGTH_UNIT()
NAMED_UNIT(*)
SI_UNIT(.MILLI.,.METRE.)
);
#483=(
NAMED_UNIT(*)
SI_UNIT($,.STERADIAN.)
SOLID_ANGLE_UNIT()
);
#484=DIMENSIONAL_EXPONENTS(0.,0.,0.,0.,0.,0.,0.);
#485=(
CONVERSION_BASED_UNIT('degree',#487)
NAMED_UNIT(#484)
PLANE_ANGLE_UNIT()
);
#486=(
NAMED_UNIT(*)
PLANE_ANGLE_UNIT()
SI_UNIT($,.RADIAN.)
);
#487=PLANE_ANGLE_MEASURE_WITH_UNIT(PLANE_ANGLE_MEASURE(0.01745329252),#486);
#488=SHAPE_DEFINITION_REPRESENTATION(#489,#490);
#489=PRODUCT_DEFINITION_SHAPE('',$,#492);
#490=SHAPE_REPRESENTATION('',(#201),#480);
#491=PRODUCT_DEFINITION_CONTEXT('part definition',#496,'design');
#492=PRODUCT_DEFINITION('TR40110H','TR40110H',#493,#491);
#493=PRODUCT_DEFINITION_FORMATION('',$,#498);
#494=PRODUCT_RELATED_PRODUCT_CATEGORY('TR40110H','TR40110H',(#498));
#495=APPLICATION_PROTOCOL_DEFINITION('international standard',
'automotive_design',2009,#496);
#496=APPLICATION_CONTEXT(
'Core Data for Automotive Mechanical Design Process');
#497=PRODUCT_CONTEXT('part definition',#496,'mechanical');
#498=PRODUCT('TR40110H','TR40110H',$,(#497));
#499=PRESENTATION_STYLE_ASSIGNMENT((#500));
#500=SURFACE_STYLE_USAGE(.BOTH.,#501);
#501=SURFACE_SIDE_STYLE('',(#502));
#502=SURFACE_STYLE_FILL_AREA(#503);
#503=FILL_AREA_STYLE('',(#504));
#504=FILL_AREA_STYLE_COLOUR('',#505);
#505=COLOUR_RGB('',0.8,0.8,0.8);
ENDSEC;
END-ISO-10303-21;
