ISO-10303-21;
HEADER;
FILE_DESCRIPTION( ( '' ), '1' );
FILE_NAME( '//se01002/users/anro/AGRU_70712022517_PE_100-RC_schwarz_Rohr_12m_225X13_4__SDR17__ISO_S-8_05.stp', '2017-12-12T08:11:32', ( '' ), ( '' ), ' ', ' ', ' ' );
FILE_SCHEMA( ( 'automotive_design' ) );
ENDSEC;
DATA;
#1 = MECHANICAL_DESIGN_GEOMETRIC_PRESENTATION_REPRESENTATION( ' ', ( #10, #11, #12, #13, #14, #15, #16, #17, #18, #19, #20, #21, #22, #23, #24, #25, #26, #27, #28, #29, #30, #31, #32, #33, #34, #35, #36 ), #6 );
#2 = PRODUCT_DEFINITION_CONTEXT( '', #37, 'design' );
#3 = APPLICATION_PROTOCOL_DEFINITION( 'INTERNATIONAL STANDARD', 'automotive_design', 1994, #37 );
#4 = PRODUCT_CATEGORY_RELATIONSHIP( 'NONE', 'NONE', #38, #39 );
#5 = SHAPE_DEFINITION_REPRESENTATION( #40, #41 );
#6 =  ( GEOMETRIC_REPRESENTATION_CONTEXT( 3 )GLOBAL_UNCERTAINTY_ASSIGNED_CONTEXT( ( #44 ) )GLOBAL_UNIT_ASSIGNED_CONTEXT( ( #46, #47, #48 ) )REPRESENTATION_CONTEXT( 'NONE', 'WORKSPACE' ) );
#10 = STYLED_ITEM( '', ( #50 ), #51 );
#11 = STYLED_ITEM( '', ( #52 ), #53 );
#12 = STYLED_ITEM( '', ( #54 ), #55 );
#13 = STYLED_ITEM( '', ( #56 ), #57 );
#14 = STYLED_ITEM( '', ( #58 ), #59 );
#15 = STYLED_ITEM( '', ( #60 ), #61 );
#16 = STYLED_ITEM( '', ( #62 ), #63 );
#17 = STYLED_ITEM( '', ( #64 ), #65 );
#18 = STYLED_ITEM( '', ( #66 ), #67 );
#19 = STYLED_ITEM( '', ( #68 ), #69 );
#20 = STYLED_ITEM( '', ( #70 ), #71 );
#21 = STYLED_ITEM( '', ( #72 ), #73 );
#22 = STYLED_ITEM( '', ( #74 ), #75 );
#23 = STYLED_ITEM( '', ( #76 ), #77 );
#24 = STYLED_ITEM( '', ( #78 ), #79 );
#25 = STYLED_ITEM( '', ( #80 ), #81 );
#26 = STYLED_ITEM( '', ( #82 ), #83 );
#27 = STYLED_ITEM( '', ( #84 ), #85 );
#28 = STYLED_ITEM( '', ( #86 ), #87 );
#29 = STYLED_ITEM( '', ( #88 ), #89 );
#30 = STYLED_ITEM( '', ( #90 ), #91 );
#31 = STYLED_ITEM( '', ( #92 ), #93 );
#32 = STYLED_ITEM( '', ( #94 ), #95 );
#33 = STYLED_ITEM( '', ( #96 ), #97 );
#34 = STYLED_ITEM( '', ( #98 ), #99 );
#35 = STYLED_ITEM( '', ( #100 ), #101 );
#36 = STYLED_ITEM( '', ( #102 ), #103 );
#37 = APPLICATION_CONTEXT( ' ' );
#38 = PRODUCT_CATEGORY( 'part', 'NONE' );
#39 = PRODUCT_RELATED_PRODUCT_CATEGORY( 'detail', ' ', ( #104 ) );
#40 = PRODUCT_DEFINITION_SHAPE( 'NONE', 'NONE', #105 );
#41 = ADVANCED_BREP_SHAPE_REPRESENTATION( '1', ( #83, #106 ), #6 );
#44 = UNCERTAINTY_MEASURE_WITH_UNIT( LENGTH_MEASURE( 1.00000000000000E-006 ), #46, '', '' );
#46 =  ( CONVERSION_BASED_UNIT( 'MILLIMETRE', #109 )LENGTH_UNIT(  )NAMED_UNIT( #112 ) );
#47 =  ( NAMED_UNIT( #114 )PLANE_ANGLE_UNIT(  )SI_UNIT( $, .RADIAN. ) );
#48 =  ( NAMED_UNIT( #114 )SOLID_ANGLE_UNIT(  )SI_UNIT( $, .STERADIAN. ) );
#50 = PRESENTATION_STYLE_ASSIGNMENT( ( #120 ) );
#51 = ADVANCED_FACE( '', ( #121 ), #122, .T. );
#52 = PRESENTATION_STYLE_ASSIGNMENT( ( #123 ) );
#53 = ADVANCED_FACE( '', ( #124, #125 ), #126, .F. );
#54 = PRESENTATION_STYLE_ASSIGNMENT( ( #127 ) );
#55 = ADVANCED_FACE( '', ( #128 ), #129, .F. );
#56 = PRESENTATION_STYLE_ASSIGNMENT( ( #130 ) );
#57 = VERTEX_POINT( '', #131 );
#58 = PRESENTATION_STYLE_ASSIGNMENT( ( #132 ) );
#59 = VERTEX_POINT( '', #133 );
#60 = PRESENTATION_STYLE_ASSIGNMENT( ( #134 ) );
#61 = VERTEX_POINT( '', #135 );
#62 = PRESENTATION_STYLE_ASSIGNMENT( ( #136 ) );
#63 = EDGE_CURVE( '', #69, #79, #137, .T. );
#64 = PRESENTATION_STYLE_ASSIGNMENT( ( #138 ) );
#65 = VERTEX_POINT( '', #139 );
#66 = PRESENTATION_STYLE_ASSIGNMENT( ( #140 ) );
#67 = EDGE_CURVE( '', #61, #57, #141, .T. );
#68 = PRESENTATION_STYLE_ASSIGNMENT( ( #142 ) );
#69 = VERTEX_POINT( '', #143 );
#70 = PRESENTATION_STYLE_ASSIGNMENT( ( #144 ) );
#71 = EDGE_CURVE( '', #57, #59, #145, .T. );
#72 = PRESENTATION_STYLE_ASSIGNMENT( ( #146 ) );
#73 = EDGE_CURVE( '', #65, #91, #147, .T. );
#74 = PRESENTATION_STYLE_ASSIGNMENT( ( #148 ) );
#75 = ADVANCED_FACE( '', ( #149, #150 ), #151, .T. );
#76 = PRESENTATION_STYLE_ASSIGNMENT( ( #152 ) );
#77 = ADVANCED_FACE( '', ( #153 ), #154, .F. );
#78 = PRESENTATION_STYLE_ASSIGNMENT( ( #155 ) );
#79 = VERTEX_POINT( '', #156 );
#80 = PRESENTATION_STYLE_ASSIGNMENT( ( #157 ) );
#81 = EDGE_CURVE( '', #69, #91, #158, .T. );
#82 = PRESENTATION_STYLE_ASSIGNMENT( ( #159 ) );
#83 = MANIFOLD_SOLID_BREP( '1', #160 );
#84 = PRESENTATION_STYLE_ASSIGNMENT( ( #161 ) );
#85 = ADVANCED_FACE( '', ( #162 ), #163, .T. );
#86 = PRESENTATION_STYLE_ASSIGNMENT( ( #164 ) );
#87 = EDGE_CURVE( '', #79, #69, #165, .T. );
#88 = PRESENTATION_STYLE_ASSIGNMENT( ( #166 ) );
#89 = EDGE_CURVE( '', #59, #57, #167, .T. );
#90 = PRESENTATION_STYLE_ASSIGNMENT( ( #168 ) );
#91 = VERTEX_POINT( '', #169 );
#92 = PRESENTATION_STYLE_ASSIGNMENT( ( #170 ) );
#93 = EDGE_CURVE( '', #99, #61, #171, .T. );
#94 = PRESENTATION_STYLE_ASSIGNMENT( ( #172 ) );
#95 = EDGE_CURVE( '', #59, #99, #173, .T. );
#96 = PRESENTATION_STYLE_ASSIGNMENT( ( #174 ) );
#97 = EDGE_CURVE( '', #61, #99, #175, .T. );
#98 = PRESENTATION_STYLE_ASSIGNMENT( ( #176 ) );
#99 = VERTEX_POINT( '', #177 );
#100 = PRESENTATION_STYLE_ASSIGNMENT( ( #178 ) );
#101 = EDGE_CURVE( '', #91, #65, #179, .T. );
#102 = PRESENTATION_STYLE_ASSIGNMENT( ( #180 ) );
#103 = EDGE_CURVE( '', #65, #79, #181, .T. );
#104 = PRODUCT( '1', '1', 'PART-1-DESC', ( #182 ) );
#105 = PRODUCT_DEFINITION( 'NONE', 'NONE', #183, #2 );
#106 = AXIS2_PLACEMENT_3D( '', #184, #185, #186 );
#109 = LENGTH_MEASURE_WITH_UNIT( LENGTH_MEASURE( 1.00000000000000 ), #187 );
#112 = DIMENSIONAL_EXPONENTS( 1.00000000000000, 0.000000000000000, 0.000000000000000, 0.000000000000000, 0.000000000000000, 0.000000000000000, 0.000000000000000 );
#114 = DIMENSIONAL_EXPONENTS( 0.000000000000000, 0.000000000000000, 0.000000000000000, 0.000000000000000, 0.000000000000000, 0.000000000000000, 0.000000000000000 );
#120 = SURFACE_STYLE_USAGE( .BOTH., #188 );
#121 = FACE_OUTER_BOUND( '', #189, .T. );
#122 = CYLINDRICAL_SURFACE( '', #190, 112.500000000000 );
#123 = SURFACE_STYLE_USAGE( .BOTH., #191 );
#124 = FACE_OUTER_BOUND( '', #192, .T. );
#125 = FACE_BOUND( '', #193, .T. );
#126 = PLANE( '', #194 );
#127 = SURFACE_STYLE_USAGE( .BOTH., #195 );
#128 = FACE_OUTER_BOUND( '', #196, .T. );
#129 = CYLINDRICAL_SURFACE( '', #197, 99.1000000000000 );
#130 = POINT_STYLE( ' ', #198, POSITIVE_LENGTH_MEASURE( 1.00000000000000E-006 ), #199 );
#131 = CARTESIAN_POINT( '', ( 0.000000000000000, 1.37768214805017E-014, 112.500000000000 ) );
#132 = POINT_STYLE( ' ', #200, POSITIVE_LENGTH_MEASURE( 1.00000000000000E-006 ), #201 );
#133 = CARTESIAN_POINT( '', ( 0.000000000000000, 0.000000000000000, -112.500000000000 ) );
#134 = POINT_STYLE( ' ', #202, POSITIVE_LENGTH_MEASURE( 1.00000000000000E-006 ), #203 );
#135 = CARTESIAN_POINT( '', ( 5000.00000000000, 1.37768214805017E-014, 112.500000000000 ) );
#136 = CURVE_STYLE( '', #204, POSITIVE_LENGTH_MEASURE( 1.00000000000000E-006 ), #205 );
#137 = CIRCLE( '', #206, 99.1000000000000 );
#138 = POINT_STYLE( ' ', #207, POSITIVE_LENGTH_MEASURE( 1.00000000000000E-006 ), #208 );
#139 = CARTESIAN_POINT( '', ( 0.000000000000000, 0.000000000000000, -99.1000000000000 ) );
#140 = CURVE_STYLE( '', #209, POSITIVE_LENGTH_MEASURE( 1.00000000000000E-006 ), #210 );
#141 = LINE( '', #211, #212 );
#142 = POINT_STYLE( ' ', #213, POSITIVE_LENGTH_MEASURE( 1.00000000000000E-006 ), #214 );
#143 = CARTESIAN_POINT( '', ( 5000.00000000000, 1.21358489663798E-014, 99.1000000000000 ) );
#144 = CURVE_STYLE( '', #215, POSITIVE_LENGTH_MEASURE( 1.00000000000000E-006 ), #216 );
#145 = CIRCLE( '', #217, 112.500000000000 );
#146 = CURVE_STYLE( '', #218, POSITIVE_LENGTH_MEASURE( 1.00000000000000E-006 ), #219 );
#147 = CIRCLE( '', #220, 99.1000000000000 );
#148 = SURFACE_STYLE_USAGE( .BOTH., #221 );
#149 = FACE_OUTER_BOUND( '', #222, .T. );
#150 = FACE_BOUND( '', #223, .T. );
#151 = PLANE( '', #224 );
#152 = SURFACE_STYLE_USAGE( .BOTH., #225 );
#153 = FACE_OUTER_BOUND( '', #226, .T. );
#154 = CYLINDRICAL_SURFACE( '', #227, 99.1000000000000 );
#155 = POINT_STYLE( ' ', #228, POSITIVE_LENGTH_MEASURE( 1.00000000000000E-006 ), #229 );
#156 = CARTESIAN_POINT( '', ( 5000.00000000000, 0.000000000000000, -99.1000000000000 ) );
#157 = CURVE_STYLE( '', #230, POSITIVE_LENGTH_MEASURE( 1.00000000000000E-006 ), #231 );
#158 = LINE( '', #232, #233 );
#159 = SURFACE_STYLE_USAGE( .BOTH., #234 );
#160 = CLOSED_SHELL( '', ( #85, #55, #77, #51, #75, #53 ) );
#161 = SURFACE_STYLE_USAGE( .BOTH., #235 );
#162 = FACE_OUTER_BOUND( '', #236, .T. );
#163 = CYLINDRICAL_SURFACE( '', #237, 112.500000000000 );
#164 = CURVE_STYLE( '', #238, POSITIVE_LENGTH_MEASURE( 1.00000000000000E-006 ), #239 );
#165 = CIRCLE( '', #240, 99.1000000000000 );
#166 = CURVE_STYLE( '', #241, POSITIVE_LENGTH_MEASURE( 1.00000000000000E-006 ), #242 );
#167 = CIRCLE( '', #243, 112.500000000000 );
#168 = POINT_STYLE( ' ', #244, POSITIVE_LENGTH_MEASURE( 1.00000000000000E-006 ), #245 );
#169 = CARTESIAN_POINT( '', ( 0.000000000000000, 1.21358489663798E-014, 99.1000000000000 ) );
#170 = CURVE_STYLE( '', #246, POSITIVE_LENGTH_MEASURE( 1.00000000000000E-006 ), #247 );
#171 = CIRCLE( '', #248, 112.500000000000 );
#172 = CURVE_STYLE( '', #249, POSITIVE_LENGTH_MEASURE( 1.00000000000000E-006 ), #250 );
#173 = LINE( '', #251, #252 );
#174 = CURVE_STYLE( '', #253, POSITIVE_LENGTH_MEASURE( 1.00000000000000E-006 ), #254 );
#175 = CIRCLE( '', #255, 112.500000000000 );
#176 = POINT_STYLE( ' ', #256, POSITIVE_LENGTH_MEASURE( 1.00000000000000E-006 ), #257 );
#177 = CARTESIAN_POINT( '', ( 5000.00000000000, 0.000000000000000, -112.500000000000 ) );
#178 = CURVE_STYLE( '', #258, POSITIVE_LENGTH_MEASURE( 1.00000000000000E-006 ), #259 );
#179 = CIRCLE( '', #260, 99.1000000000000 );
#180 = CURVE_STYLE( '', #261, POSITIVE_LENGTH_MEASURE( 1.00000000000000E-006 ), #262 );
#181 = LINE( '', #263, #264 );
#182 = PRODUCT_CONTEXT( '', #37, 'mechanical' );
#183 = PRODUCT_DEFINITION_FORMATION_WITH_SPECIFIED_SOURCE( ' ', 'NONE', #104, .NOT_KNOWN. );
#184 = CARTESIAN_POINT( '', ( 0.000000000000000, 0.000000000000000, 0.000000000000000 ) );
#185 = DIRECTION( '', ( 0.000000000000000, 0.000000000000000, 1.00000000000000 ) );
#186 = DIRECTION( '', ( 1.00000000000000, 0.000000000000000, 0.000000000000000 ) );
#187 =  ( NAMED_UNIT( #112 )LENGTH_UNIT(  )SI_UNIT( .MILLI., .METRE. ) );
#188 = SURFACE_SIDE_STYLE( '', ( #266 ) );
#189 = EDGE_LOOP( '', ( #267, #268, #269, #270 ) );
#190 = AXIS2_PLACEMENT_3D( '', #271, #272, #273 );
#191 = SURFACE_SIDE_STYLE( '', ( #274 ) );
#192 = EDGE_LOOP( '', ( #275, #276 ) );
#193 = EDGE_LOOP( '', ( #277, #278 ) );
#194 = AXIS2_PLACEMENT_3D( '', #279, #280, #281 );
#195 = SURFACE_SIDE_STYLE( '', ( #282 ) );
#196 = EDGE_LOOP( '', ( #283, #284, #285, #286 ) );
#197 = AXIS2_PLACEMENT_3D( '', #287, #288, #289 );
#198 = PRE_DEFINED_MARKER( '' );
#199 = COLOUR_RGB( '', 0.689999997615810, 0.689999997615810, 0.689999997615810 );
#200 = PRE_DEFINED_MARKER( '' );
#201 = COLOUR_RGB( '', 0.689999997615810, 0.689999997615810, 0.689999997615810 );
#202 = PRE_DEFINED_MARKER( '' );
#203 = COLOUR_RGB( '', 0.689999997615810, 0.689999997615810, 0.689999997615810 );
#204 = DRAUGHTING_PRE_DEFINED_CURVE_FONT( 'continuous' );
#205 = COLOUR_RGB( '', 0.689999997615810, 0.689999997615810, 0.689999997615810 );
#206 = AXIS2_PLACEMENT_3D( '', #290, #291, #292 );
#207 = PRE_DEFINED_MARKER( '' );
#208 = COLOUR_RGB( '', 0.689999997615810, 0.689999997615810, 0.689999997615810 );
#209 = DRAUGHTING_PRE_DEFINED_CURVE_FONT( 'continuous' );
#210 = COLOUR_RGB( '', 0.689999997615810, 0.689999997615810, 0.689999997615810 );
#211 = CARTESIAN_POINT( '', ( 0.000000000000000, 1.37768214805017E-014, 112.500000000000 ) );
#212 = VECTOR( '', #293, 1.00000000000000 );
#213 = PRE_DEFINED_MARKER( '' );
#214 = COLOUR_RGB( '', 0.689999997615810, 0.689999997615810, 0.689999997615810 );
#215 = DRAUGHTING_PRE_DEFINED_CURVE_FONT( 'continuous' );
#216 = COLOUR_RGB( '', 0.689999997615810, 0.689999997615810, 0.689999997615810 );
#217 = AXIS2_PLACEMENT_3D( '', #294, #295, #296 );
#218 = DRAUGHTING_PRE_DEFINED_CURVE_FONT( 'continuous' );
#219 = COLOUR_RGB( '', 0.689999997615810, 0.689999997615810, 0.689999997615810 );
#220 = AXIS2_PLACEMENT_3D( '', #297, #298, #299 );
#221 = SURFACE_SIDE_STYLE( '', ( #300 ) );
#222 = EDGE_LOOP( '', ( #301, #302 ) );
#223 = EDGE_LOOP( '', ( #303, #304 ) );
#224 = AXIS2_PLACEMENT_3D( '', #305, #306, #307 );
#225 = SURFACE_SIDE_STYLE( '', ( #308 ) );
#226 = EDGE_LOOP( '', ( #309, #310, #311, #312 ) );
#227 = AXIS2_PLACEMENT_3D( '', #313, #314, #315 );
#228 = PRE_DEFINED_MARKER( '' );
#229 = COLOUR_RGB( '', 0.689999997615810, 0.689999997615810, 0.689999997615810 );
#230 = DRAUGHTING_PRE_DEFINED_CURVE_FONT( 'continuous' );
#231 = COLOUR_RGB( '', 0.689999997615810, 0.689999997615810, 0.689999997615810 );
#232 = CARTESIAN_POINT( '', ( 0.000000000000000, 1.21358489663798E-014, 99.1000000000000 ) );
#233 = VECTOR( '', #316, 1.00000000000000 );
#234 = SURFACE_SIDE_STYLE( '', ( #317 ) );
#235 = SURFACE_SIDE_STYLE( '', ( #318 ) );
#236 = EDGE_LOOP( '', ( #319, #320, #321, #322 ) );
#237 = AXIS2_PLACEMENT_3D( '', #323, #324, #325 );
#238 = DRAUGHTING_PRE_DEFINED_CURVE_FONT( 'continuous' );
#239 = COLOUR_RGB( '', 0.689999997615810, 0.689999997615810, 0.689999997615810 );
#240 = AXIS2_PLACEMENT_3D( '', #326, #327, #328 );
#241 = DRAUGHTING_PRE_DEFINED_CURVE_FONT( 'continuous' );
#242 = COLOUR_RGB( '', 0.689999997615810, 0.689999997615810, 0.689999997615810 );
#243 = AXIS2_PLACEMENT_3D( '', #329, #330, #331 );
#244 = PRE_DEFINED_MARKER( '' );
#245 = COLOUR_RGB( '', 0.689999997615810, 0.689999997615810, 0.689999997615810 );
#246 = DRAUGHTING_PRE_DEFINED_CURVE_FONT( 'continuous' );
#247 = COLOUR_RGB( '', 0.689999997615810, 0.689999997615810, 0.689999997615810 );
#248 = AXIS2_PLACEMENT_3D( '', #332, #333, #334 );
#249 = DRAUGHTING_PRE_DEFINED_CURVE_FONT( 'continuous' );
#250 = COLOUR_RGB( '', 0.689999997615810, 0.689999997615810, 0.689999997615810 );
#251 = CARTESIAN_POINT( '', ( 0.000000000000000, -1.37768214805017E-014, -112.500000000000 ) );
#252 = VECTOR( '', #335, 1.00000000000000 );
#253 = DRAUGHTING_PRE_DEFINED_CURVE_FONT( 'continuous' );
#254 = COLOUR_RGB( '', 0.689999997615810, 0.689999997615810, 0.689999997615810 );
#255 = AXIS2_PLACEMENT_3D( '', #336, #337, #338 );
#256 = PRE_DEFINED_MARKER( '' );
#257 = COLOUR_RGB( '', 0.689999997615810, 0.689999997615810, 0.689999997615810 );
#258 = DRAUGHTING_PRE_DEFINED_CURVE_FONT( 'continuous' );
#259 = COLOUR_RGB( '', 0.689999997615810, 0.689999997615810, 0.689999997615810 );
#260 = AXIS2_PLACEMENT_3D( '', #339, #340, #341 );
#261 = DRAUGHTING_PRE_DEFINED_CURVE_FONT( 'continuous' );
#262 = COLOUR_RGB( '', 0.689999997615810, 0.689999997615810, 0.689999997615810 );
#263 = CARTESIAN_POINT( '', ( 0.000000000000000, -1.21358489663798E-014, -99.1000000000000 ) );
#264 = VECTOR( '', #342, 1.00000000000000 );
#266 = SURFACE_STYLE_FILL_AREA( #343 );
#267 = ORIENTED_EDGE( '', *, *, #95, .T. );
#268 = ORIENTED_EDGE( '', *, *, #93, .T. );
#269 = ORIENTED_EDGE( '', *, *, #67, .T. );
#270 = ORIENTED_EDGE( '', *, *, #71, .T. );
#271 = CARTESIAN_POINT( '', ( 0.000000000000000, 0.000000000000000, 0.000000000000000 ) );
#272 = DIRECTION( '', ( -1.00000000000000, -0.000000000000000, -0.000000000000000 ) );
#273 = DIRECTION( '', ( 0.000000000000000, 0.000000000000000, -1.00000000000000 ) );
#274 = SURFACE_STYLE_FILL_AREA( #344 );
#275 = ORIENTED_EDGE( '', *, *, #89, .F. );
#276 = ORIENTED_EDGE( '', *, *, #71, .F. );
#277 = ORIENTED_EDGE( '', *, *, #73, .T. );
#278 = ORIENTED_EDGE( '', *, *, #101, .T. );
#279 = CARTESIAN_POINT( '', ( 0.000000000000000, 0.000000000000000, 0.000000000000000 ) );
#280 = DIRECTION( '', ( 1.00000000000000, 0.000000000000000, 0.000000000000000 ) );
#281 = DIRECTION( '', ( 0.000000000000000, 0.000000000000000, -1.00000000000000 ) );
#282 = SURFACE_STYLE_FILL_AREA( #345 );
#283 = ORIENTED_EDGE( '', *, *, #103, .F. );
#284 = ORIENTED_EDGE( '', *, *, #101, .F. );
#285 = ORIENTED_EDGE( '', *, *, #81, .F. );
#286 = ORIENTED_EDGE( '', *, *, #63, .T. );
#287 = CARTESIAN_POINT( '', ( 0.000000000000000, 0.000000000000000, 0.000000000000000 ) );
#288 = DIRECTION( '', ( -1.00000000000000, -0.000000000000000, -0.000000000000000 ) );
#289 = DIRECTION( '', ( 0.000000000000000, 0.000000000000000, -1.00000000000000 ) );
#290 = CARTESIAN_POINT( '', ( 5000.00000000000, 0.000000000000000, 0.000000000000000 ) );
#291 = DIRECTION( '', ( 1.00000000000000, 0.000000000000000, 0.000000000000000 ) );
#292 = DIRECTION( '', ( 0.000000000000000, 0.000000000000000, -1.00000000000000 ) );
#293 = DIRECTION( '', ( -1.00000000000000, -0.000000000000000, -0.000000000000000 ) );
#294 = CARTESIAN_POINT( '', ( 0.000000000000000, 0.000000000000000, 0.000000000000000 ) );
#295 = DIRECTION( '', ( 1.00000000000000, -0.000000000000000, 0.000000000000000 ) );
#296 = DIRECTION( '', ( 0.000000000000000, 0.000000000000000, -1.00000000000000 ) );
#297 = CARTESIAN_POINT( '', ( 0.000000000000000, 0.000000000000000, 0.000000000000000 ) );
#298 = DIRECTION( '', ( 1.00000000000000, -0.000000000000000, 0.000000000000000 ) );
#299 = DIRECTION( '', ( 0.000000000000000, 0.000000000000000, -1.00000000000000 ) );
#300 = SURFACE_STYLE_FILL_AREA( #346 );
#301 = ORIENTED_EDGE( '', *, *, #93, .F. );
#302 = ORIENTED_EDGE( '', *, *, #97, .F. );
#303 = ORIENTED_EDGE( '', *, *, #87, .F. );
#304 = ORIENTED_EDGE( '', *, *, #63, .F. );
#305 = CARTESIAN_POINT( '', ( 5000.00000000000, 0.000000000000000, 0.000000000000000 ) );
#306 = DIRECTION( '', ( 1.00000000000000, 0.000000000000000, 0.000000000000000 ) );
#307 = DIRECTION( '', ( 0.000000000000000, 0.000000000000000, -1.00000000000000 ) );
#308 = SURFACE_STYLE_FILL_AREA( #347 );
#309 = ORIENTED_EDGE( '', *, *, #103, .T. );
#310 = ORIENTED_EDGE( '', *, *, #87, .T. );
#311 = ORIENTED_EDGE( '', *, *, #81, .T. );
#312 = ORIENTED_EDGE( '', *, *, #73, .F. );
#313 = CARTESIAN_POINT( '', ( 0.000000000000000, 0.000000000000000, 0.000000000000000 ) );
#314 = DIRECTION( '', ( -1.00000000000000, -0.000000000000000, -0.000000000000000 ) );
#315 = DIRECTION( '', ( 0.000000000000000, 0.000000000000000, -1.00000000000000 ) );
#316 = DIRECTION( '', ( -1.00000000000000, 0.000000000000000, 0.000000000000000 ) );
#317 = SURFACE_STYLE_FILL_AREA( #348 );
#318 = SURFACE_STYLE_FILL_AREA( #349 );
#319 = ORIENTED_EDGE( '', *, *, #95, .F. );
#320 = ORIENTED_EDGE( '', *, *, #89, .T. );
#321 = ORIENTED_EDGE( '', *, *, #67, .F. );
#322 = ORIENTED_EDGE( '', *, *, #97, .T. );
#323 = CARTESIAN_POINT( '', ( 0.000000000000000, 0.000000000000000, 0.000000000000000 ) );
#324 = DIRECTION( '', ( -1.00000000000000, -0.000000000000000, -0.000000000000000 ) );
#325 = DIRECTION( '', ( 0.000000000000000, 0.000000000000000, -1.00000000000000 ) );
#326 = CARTESIAN_POINT( '', ( 5000.00000000000, 0.000000000000000, 0.000000000000000 ) );
#327 = DIRECTION( '', ( 1.00000000000000, 0.000000000000000, 0.000000000000000 ) );
#328 = DIRECTION( '', ( 0.000000000000000, 0.000000000000000, -1.00000000000000 ) );
#329 = CARTESIAN_POINT( '', ( 0.000000000000000, 0.000000000000000, 0.000000000000000 ) );
#330 = DIRECTION( '', ( 1.00000000000000, -0.000000000000000, 0.000000000000000 ) );
#331 = DIRECTION( '', ( 0.000000000000000, 0.000000000000000, -1.00000000000000 ) );
#332 = CARTESIAN_POINT( '', ( 5000.00000000000, 0.000000000000000, 0.000000000000000 ) );
#333 = DIRECTION( '', ( -1.00000000000000, 0.000000000000000, 0.000000000000000 ) );
#334 = DIRECTION( '', ( 0.000000000000000, 0.000000000000000, -1.00000000000000 ) );
#335 = DIRECTION( '', ( 1.00000000000000, 0.000000000000000, 0.000000000000000 ) );
#336 = CARTESIAN_POINT( '', ( 5000.00000000000, 0.000000000000000, 0.000000000000000 ) );
#337 = DIRECTION( '', ( -1.00000000000000, 0.000000000000000, 0.000000000000000 ) );
#338 = DIRECTION( '', ( 0.000000000000000, 0.000000000000000, -1.00000000000000 ) );
#339 = CARTESIAN_POINT( '', ( 0.000000000000000, 0.000000000000000, 0.000000000000000 ) );
#340 = DIRECTION( '', ( 1.00000000000000, -0.000000000000000, 0.000000000000000 ) );
#341 = DIRECTION( '', ( 0.000000000000000, 0.000000000000000, -1.00000000000000 ) );
#342 = DIRECTION( '', ( 1.00000000000000, 0.000000000000000, 0.000000000000000 ) );
#343 = FILL_AREA_STYLE( '', ( #350 ) );
#344 = FILL_AREA_STYLE( '', ( #351 ) );
#345 = FILL_AREA_STYLE( '', ( #352 ) );
#346 = FILL_AREA_STYLE( '', ( #353 ) );
#347 = FILL_AREA_STYLE( '', ( #354 ) );
#348 = FILL_AREA_STYLE( '', ( #355 ) );
#349 = FILL_AREA_STYLE( '', ( #356 ) );
#350 = FILL_AREA_STYLE_COLOUR( '', #357 );
#351 = FILL_AREA_STYLE_COLOUR( '', #358 );
#352 = FILL_AREA_STYLE_COLOUR( '', #359 );
#353 = FILL_AREA_STYLE_COLOUR( '', #360 );
#354 = FILL_AREA_STYLE_COLOUR( '', #361 );
#355 = FILL_AREA_STYLE_COLOUR( '', #362 );
#356 = FILL_AREA_STYLE_COLOUR( '', #363 );
#357 = COLOUR_RGB( '', 0.689999997615810, 0.689999997615810, 0.689999997615810 );
#358 = COLOUR_RGB( '', 0.689999997615810, 0.689999997615810, 0.689999997615810 );
#359 = COLOUR_RGB( '', 0.689999997615810, 0.689999997615810, 0.689999997615810 );
#360 = COLOUR_RGB( '', 0.689999997615810, 0.689999997615810, 0.689999997615810 );
#361 = COLOUR_RGB( '', 0.689999997615810, 0.689999997615810, 0.689999997615810 );
#362 = COLOUR_RGB( '', 0.689999997615810, 0.689999997615810, 0.689999997615810 );
#363 = COLOUR_RGB( '', 0.689999997615810, 0.689999997615810, 0.689999997615810 );
ENDSEC;
END-ISO-10303-21;
