ISO-10303-21;
HEADER;
FILE_DESCRIPTION( ( '' ), '1' );
FILE_NAME( '//se01002/users/anro/AGRU_25705012511_PE_100_schwarz_Rohr__5m_125X11_4__SDR11__ISO_S-5_05.stp', '2017-12-11T09:35:18', ( '' ), ( '' ), ' ', ' ', ' ' );
FILE_SCHEMA( ( 'automotive_design' ) );
ENDSEC;
DATA;
#1 = MECHANICAL_DESIGN_GEOMETRIC_PRESENTATION_REPRESENTATION( ' ', ( #10, #11, #12, #13, #14, #15, #16, #17, #18, #19, #20, #21, #22, #23, #24, #25, #26, #27, #28, #29, #30, #31, #32, #33, #34, #35, #36 ), #6 );
#2 = PRODUCT_DEFINITION_CONTEXT( '', #37, 'design' );
#3 = APPLICATION_PROTOCOL_DEFINITION( 'INTERNATIONAL STANDARD', 'automotive_design', 1994, #37 );
#4 = PRODUCT_CATEGORY_RELATIONSHIP( 'NONE', 'NONE', #38, #39 );
#5 = SHAPE_DEFINITION_REPRESENTATION( #40, #41 );
#6 =  ( GEOMETRIC_REPRESENTATION_CONTEXT( 3 )GLOBAL_UNCERTAINTY_ASSIGNED_CONTEXT( ( #44 ) )GLOBAL_UNIT_ASSIGNED_CONTEXT( ( #46, #47, #48 ) )REPRESENTATION_CONTEXT( 'NONE', 'WORKSPACE' ) );
#10 = STYLED_ITEM( '', ( #50 ), #51 );
#11 = STYLED_ITEM( '', ( #52 ), #53 );
#12 = STYLED_ITEM( '', ( #54 ), #55 );
#13 = STYLED_ITEM( '', ( #56 ), #57 );
#14 = STYLED_ITEM( '', ( #58 ), #59 );
#15 = STYLED_ITEM( '', ( #60 ), #61 );
#16 = STYLED_ITEM( '', ( #62 ), #63 );
#17 = STYLED_ITEM( '', ( #64 ), #65 );
#18 = STYLED_ITEM( '', ( #66 ), #67 );
#19 = STYLED_ITEM( '', ( #68 ), #69 );
#20 = STYLED_ITEM( '', ( #70 ), #71 );
#21 = STYLED_ITEM( '', ( #72 ), #73 );
#22 = STYLED_ITEM( '', ( #74 ), #75 );
#23 = STYLED_ITEM( '', ( #76 ), #77 );
#24 = STYLED_ITEM( '', ( #78 ), #79 );
#25 = STYLED_ITEM( '', ( #80 ), #81 );
#26 = STYLED_ITEM( '', ( #82 ), #83 );
#27 = STYLED_ITEM( '', ( #84 ), #85 );
#28 = STYLED_ITEM( '', ( #86 ), #87 );
#29 = STYLED_ITEM( '', ( #88 ), #89 );
#30 = STYLED_ITEM( '', ( #90 ), #91 );
#31 = STYLED_ITEM( '', ( #92 ), #93 );
#32 = STYLED_ITEM( '', ( #94 ), #95 );
#33 = STYLED_ITEM( '', ( #96 ), #97 );
#34 = STYLED_ITEM( '', ( #98 ), #99 );
#35 = STYLED_ITEM( '', ( #100 ), #101 );
#36 = STYLED_ITEM( '', ( #102 ), #103 );
#37 = APPLICATION_CONTEXT( ' ' );
#38 = PRODUCT_CATEGORY( 'part', 'NONE' );
#39 = PRODUCT_RELATED_PRODUCT_CATEGORY( 'detail', ' ', ( #104 ) );
#40 = PRODUCT_DEFINITION_SHAPE( 'NONE', 'NONE', #105 );
#41 = ADVANCED_BREP_SHAPE_REPRESENTATION( '1', ( #53, #106 ), #6 );
#44 = UNCERTAINTY_MEASURE_WITH_UNIT( LENGTH_MEASURE( 1.00000000000000E-006 ), #46, '', '' );
#46 =  ( CONVERSION_BASED_UNIT( 'MILLIMETRE', #109 )LENGTH_UNIT(  )NAMED_UNIT( #112 ) );
#47 =  ( NAMED_UNIT( #114 )PLANE_ANGLE_UNIT(  )SI_UNIT( $, .RADIAN. ) );
#48 =  ( NAMED_UNIT( #114 )SOLID_ANGLE_UNIT(  )SI_UNIT( $, .STERADIAN. ) );
#50 = PRESENTATION_STYLE_ASSIGNMENT( ( #120 ) );
#51 = VERTEX_POINT( '', #121 );
#52 = PRESENTATION_STYLE_ASSIGNMENT( ( #122 ) );
#53 = MANIFOLD_SOLID_BREP( '1', #123 );
#54 = PRESENTATION_STYLE_ASSIGNMENT( ( #124 ) );
#55 = ADVANCED_FACE( '', ( #125 ), #126, .T. );
#56 = PRESENTATION_STYLE_ASSIGNMENT( ( #127 ) );
#57 = EDGE_CURVE( '', #83, #51, #128, .T. );
#58 = PRESENTATION_STYLE_ASSIGNMENT( ( #129 ) );
#59 = EDGE_CURVE( '', #75, #69, #130, .T. );
#60 = PRESENTATION_STYLE_ASSIGNMENT( ( #131 ) );
#61 = EDGE_CURVE( '', #95, #51, #132, .T. );
#62 = PRESENTATION_STYLE_ASSIGNMENT( ( #133 ) );
#63 = EDGE_CURVE( '', #69, #75, #134, .T. );
#64 = PRESENTATION_STYLE_ASSIGNMENT( ( #135 ) );
#65 = EDGE_CURVE( '', #99, #103, #136, .T. );
#66 = PRESENTATION_STYLE_ASSIGNMENT( ( #137 ) );
#67 = EDGE_CURVE( '', #103, #99, #138, .T. );
#68 = PRESENTATION_STYLE_ASSIGNMENT( ( #139 ) );
#69 = VERTEX_POINT( '', #140 );
#70 = PRESENTATION_STYLE_ASSIGNMENT( ( #141 ) );
#71 = EDGE_CURVE( '', #103, #69, #142, .T. );
#72 = PRESENTATION_STYLE_ASSIGNMENT( ( #143 ) );
#73 = EDGE_CURVE( '', #75, #99, #144, .T. );
#74 = PRESENTATION_STYLE_ASSIGNMENT( ( #145 ) );
#75 = VERTEX_POINT( '', #146 );
#76 = PRESENTATION_STYLE_ASSIGNMENT( ( #147 ) );
#77 = ADVANCED_FACE( '', ( #148 ), #149, .F. );
#78 = PRESENTATION_STYLE_ASSIGNMENT( ( #150 ) );
#79 = ADVANCED_FACE( '', ( #151, #152 ), #153, .F. );
#80 = PRESENTATION_STYLE_ASSIGNMENT( ( #154 ) );
#81 = EDGE_CURVE( '', #83, #93, #155, .T. );
#82 = PRESENTATION_STYLE_ASSIGNMENT( ( #156 ) );
#83 = VERTEX_POINT( '', #157 );
#84 = PRESENTATION_STYLE_ASSIGNMENT( ( #158 ) );
#85 = ADVANCED_FACE( '', ( #159 ), #160, .T. );
#86 = PRESENTATION_STYLE_ASSIGNMENT( ( #161 ) );
#87 = ADVANCED_FACE( '', ( #162, #163 ), #164, .T. );
#88 = PRESENTATION_STYLE_ASSIGNMENT( ( #165 ) );
#89 = EDGE_CURVE( '', #51, #95, #166, .T. );
#90 = PRESENTATION_STYLE_ASSIGNMENT( ( #167 ) );
#91 = ADVANCED_FACE( '', ( #168 ), #169, .F. );
#92 = PRESENTATION_STYLE_ASSIGNMENT( ( #170 ) );
#93 = VERTEX_POINT( '', #171 );
#94 = PRESENTATION_STYLE_ASSIGNMENT( ( #172 ) );
#95 = VERTEX_POINT( '', #173 );
#96 = PRESENTATION_STYLE_ASSIGNMENT( ( #174 ) );
#97 = EDGE_CURVE( '', #95, #93, #175, .T. );
#98 = PRESENTATION_STYLE_ASSIGNMENT( ( #176 ) );
#99 = VERTEX_POINT( '', #177 );
#100 = PRESENTATION_STYLE_ASSIGNMENT( ( #178 ) );
#101 = EDGE_CURVE( '', #93, #83, #179, .T. );
#102 = PRESENTATION_STYLE_ASSIGNMENT( ( #180 ) );
#103 = VERTEX_POINT( '', #181 );
#104 = PRODUCT( '1', '1', 'PART-1-DESC', ( #182 ) );
#105 = PRODUCT_DEFINITION( 'NONE', 'NONE', #183, #2 );
#106 = AXIS2_PLACEMENT_3D( '', #184, #185, #186 );
#109 = LENGTH_MEASURE_WITH_UNIT( LENGTH_MEASURE( 1.00000000000000 ), #187 );
#112 = DIMENSIONAL_EXPONENTS( 1.00000000000000, 0.000000000000000, 0.000000000000000, 0.000000000000000, 0.000000000000000, 0.000000000000000, 0.000000000000000 );
#114 = DIMENSIONAL_EXPONENTS( 0.000000000000000, 0.000000000000000, 0.000000000000000, 0.000000000000000, 0.000000000000000, 0.000000000000000, 0.000000000000000 );
#120 = POINT_STYLE( ' ', #188, POSITIVE_LENGTH_MEASURE( 1.00000000000000E-006 ), #189 );
#121 = CARTESIAN_POINT( '', ( 5000.00000000000, 0.000000000000000, -62.5000000000000 ) );
#122 = SURFACE_STYLE_USAGE( .BOTH., #190 );
#123 = CLOSED_SHELL( '', ( #55, #77, #91, #85, #87, #79 ) );
#124 = SURFACE_STYLE_USAGE( .BOTH., #191 );
#125 = FACE_OUTER_BOUND( '', #192, .T. );
#126 = CYLINDRICAL_SURFACE( '', #193, 62.5000000000000 );
#127 = CURVE_STYLE( '', #194, POSITIVE_LENGTH_MEASURE( 1.00000000000000E-006 ), #195 );
#128 = LINE( '', #196, #197 );
#129 = CURVE_STYLE( '', #198, POSITIVE_LENGTH_MEASURE( 1.00000000000000E-006 ), #199 );
#130 = CIRCLE( '', #200, 51.1000000000000 );
#131 = CURVE_STYLE( '', #201, POSITIVE_LENGTH_MEASURE( 1.00000000000000E-006 ), #202 );
#132 = CIRCLE( '', #203, 62.5000000000000 );
#133 = CURVE_STYLE( '', #204, POSITIVE_LENGTH_MEASURE( 1.00000000000000E-006 ), #205 );
#134 = CIRCLE( '', #206, 51.1000000000000 );
#135 = CURVE_STYLE( '', #207, POSITIVE_LENGTH_MEASURE( 1.00000000000000E-006 ), #208 );
#136 = CIRCLE( '', #209, 51.1000000000000 );
#137 = CURVE_STYLE( '', #210, POSITIVE_LENGTH_MEASURE( 1.00000000000000E-006 ), #211 );
#138 = CIRCLE( '', #212, 51.1000000000000 );
#139 = POINT_STYLE( ' ', #213, POSITIVE_LENGTH_MEASURE( 1.00000000000000E-006 ), #214 );
#140 = CARTESIAN_POINT( '', ( 0.000000000000000, 6.25773846803235E-015, 51.1000000000000 ) );
#141 = CURVE_STYLE( '', #215, POSITIVE_LENGTH_MEASURE( 1.00000000000000E-006 ), #216 );
#142 = LINE( '', #217, #218 );
#143 = CURVE_STYLE( '', #219, POSITIVE_LENGTH_MEASURE( 1.00000000000000E-006 ), #220 );
#144 = LINE( '', #221, #222 );
#145 = POINT_STYLE( ' ', #223, POSITIVE_LENGTH_MEASURE( 1.00000000000000E-006 ), #224 );
#146 = CARTESIAN_POINT( '', ( 0.000000000000000, 0.000000000000000, -51.1000000000000 ) );
#147 = SURFACE_STYLE_USAGE( .BOTH., #225 );
#148 = FACE_OUTER_BOUND( '', #226, .T. );
#149 = CYLINDRICAL_SURFACE( '', #227, 51.1000000000000 );
#150 = SURFACE_STYLE_USAGE( .BOTH., #228 );
#151 = FACE_OUTER_BOUND( '', #229, .T. );
#152 = FACE_BOUND( '', #230, .T. );
#153 = PLANE( '', #231 );
#154 = CURVE_STYLE( '', #232, POSITIVE_LENGTH_MEASURE( 1.00000000000000E-006 ), #233 );
#155 = CIRCLE( '', #234, 62.5000000000000 );
#156 = POINT_STYLE( ' ', #235, POSITIVE_LENGTH_MEASURE( 1.00000000000000E-006 ), #236 );
#157 = CARTESIAN_POINT( '', ( 0.000000000000000, 0.000000000000000, -62.5000000000000 ) );
#158 = SURFACE_STYLE_USAGE( .BOTH., #237 );
#159 = FACE_OUTER_BOUND( '', #238, .T. );
#160 = CYLINDRICAL_SURFACE( '', #239, 62.5000000000000 );
#161 = SURFACE_STYLE_USAGE( .BOTH., #240 );
#162 = FACE_OUTER_BOUND( '', #241, .T. );
#163 = FACE_BOUND( '', #242, .T. );
#164 = PLANE( '', #243 );
#165 = CURVE_STYLE( '', #244, POSITIVE_LENGTH_MEASURE( 1.00000000000000E-006 ), #245 );
#166 = CIRCLE( '', #246, 62.5000000000000 );
#167 = SURFACE_STYLE_USAGE( .BOTH., #247 );
#168 = FACE_OUTER_BOUND( '', #248, .T. );
#169 = CYLINDRICAL_SURFACE( '', #249, 51.1000000000000 );
#170 = POINT_STYLE( ' ', #250, POSITIVE_LENGTH_MEASURE( 1.00000000000000E-006 ), #251 );
#171 = CARTESIAN_POINT( '', ( 0.000000000000000, 7.65378971138986E-015, 62.5000000000000 ) );
#172 = POINT_STYLE( ' ', #252, POSITIVE_LENGTH_MEASURE( 1.00000000000000E-006 ), #253 );
#173 = CARTESIAN_POINT( '', ( 5000.00000000000, 7.65378971138986E-015, 62.5000000000000 ) );
#174 = CURVE_STYLE( '', #254, POSITIVE_LENGTH_MEASURE( 1.00000000000000E-006 ), #255 );
#175 = LINE( '', #256, #257 );
#176 = POINT_STYLE( ' ', #258, POSITIVE_LENGTH_MEASURE( 1.00000000000000E-006 ), #259 );
#177 = CARTESIAN_POINT( '', ( 5000.00000000000, 0.000000000000000, -51.1000000000000 ) );
#178 = CURVE_STYLE( '', #260, POSITIVE_LENGTH_MEASURE( 1.00000000000000E-006 ), #261 );
#179 = CIRCLE( '', #262, 62.5000000000000 );
#180 = POINT_STYLE( ' ', #263, POSITIVE_LENGTH_MEASURE( 1.00000000000000E-006 ), #264 );
#181 = CARTESIAN_POINT( '', ( 5000.00000000000, 6.25773846803235E-015, 51.1000000000000 ) );
#182 = PRODUCT_CONTEXT( '', #37, 'mechanical' );
#183 = PRODUCT_DEFINITION_FORMATION_WITH_SPECIFIED_SOURCE( ' ', 'NONE', #104, .NOT_KNOWN. );
#184 = CARTESIAN_POINT( '', ( 0.000000000000000, 0.000000000000000, 0.000000000000000 ) );
#185 = DIRECTION( '', ( 0.000000000000000, 0.000000000000000, 1.00000000000000 ) );
#186 = DIRECTION( '', ( 1.00000000000000, 0.000000000000000, 0.000000000000000 ) );
#187 =  ( NAMED_UNIT( #112 )LENGTH_UNIT(  )SI_UNIT( .MILLI., .METRE. ) );
#188 = PRE_DEFINED_MARKER( '' );
#189 = COLOUR_RGB( '', 0.689999997615810, 0.689999997615810, 0.689999997615810 );
#190 = SURFACE_SIDE_STYLE( '', ( #266 ) );
#191 = SURFACE_SIDE_STYLE( '', ( #267 ) );
#192 = EDGE_LOOP( '', ( #268, #269, #270, #271 ) );
#193 = AXIS2_PLACEMENT_3D( '', #272, #273, #274 );
#194 = DRAUGHTING_PRE_DEFINED_CURVE_FONT( 'continuous' );
#195 = COLOUR_RGB( '', 0.689999997615810, 0.689999997615810, 0.689999997615810 );
#196 = CARTESIAN_POINT( '', ( 0.000000000000000, -7.65378971138986E-015, -62.5000000000000 ) );
#197 = VECTOR( '', #275, 1.00000000000000 );
#198 = DRAUGHTING_PRE_DEFINED_CURVE_FONT( 'continuous' );
#199 = COLOUR_RGB( '', 0.689999997615810, 0.689999997615810, 0.689999997615810 );
#200 = AXIS2_PLACEMENT_3D( '', #276, #277, #278 );
#201 = DRAUGHTING_PRE_DEFINED_CURVE_FONT( 'continuous' );
#202 = COLOUR_RGB( '', 0.689999997615810, 0.689999997615810, 0.689999997615810 );
#203 = AXIS2_PLACEMENT_3D( '', #279, #280, #281 );
#204 = DRAUGHTING_PRE_DEFINED_CURVE_FONT( 'continuous' );
#205 = COLOUR_RGB( '', 0.689999997615810, 0.689999997615810, 0.689999997615810 );
#206 = AXIS2_PLACEMENT_3D( '', #282, #283, #284 );
#207 = DRAUGHTING_PRE_DEFINED_CURVE_FONT( 'continuous' );
#208 = COLOUR_RGB( '', 0.689999997615810, 0.689999997615810, 0.689999997615810 );
#209 = AXIS2_PLACEMENT_3D( '', #285, #286, #287 );
#210 = DRAUGHTING_PRE_DEFINED_CURVE_FONT( 'continuous' );
#211 = COLOUR_RGB( '', 0.689999997615810, 0.689999997615810, 0.689999997615810 );
#212 = AXIS2_PLACEMENT_3D( '', #288, #289, #290 );
#213 = PRE_DEFINED_MARKER( '' );
#214 = COLOUR_RGB( '', 0.689999997615810, 0.689999997615810, 0.689999997615810 );
#215 = DRAUGHTING_PRE_DEFINED_CURVE_FONT( 'continuous' );
#216 = COLOUR_RGB( '', 0.689999997615810, 0.689999997615810, 0.689999997615810 );
#217 = CARTESIAN_POINT( '', ( 0.000000000000000, 6.25773846803235E-015, 51.1000000000000 ) );
#218 = VECTOR( '', #291, 1.00000000000000 );
#219 = DRAUGHTING_PRE_DEFINED_CURVE_FONT( 'continuous' );
#220 = COLOUR_RGB( '', 0.689999997615810, 0.689999997615810, 0.689999997615810 );
#221 = CARTESIAN_POINT( '', ( 0.000000000000000, -6.25773846803235E-015, -51.1000000000000 ) );
#222 = VECTOR( '', #292, 1.00000000000000 );
#223 = PRE_DEFINED_MARKER( '' );
#224 = COLOUR_RGB( '', 0.689999997615810, 0.689999997615810, 0.689999997615810 );
#225 = SURFACE_SIDE_STYLE( '', ( #293 ) );
#226 = EDGE_LOOP( '', ( #294, #295, #296, #297 ) );
#227 = AXIS2_PLACEMENT_3D( '', #298, #299, #300 );
#228 = SURFACE_SIDE_STYLE( '', ( #301 ) );
#229 = EDGE_LOOP( '', ( #302, #303 ) );
#230 = EDGE_LOOP( '', ( #304, #305 ) );
#231 = AXIS2_PLACEMENT_3D( '', #306, #307, #308 );
#232 = DRAUGHTING_PRE_DEFINED_CURVE_FONT( 'continuous' );
#233 = COLOUR_RGB( '', 0.689999997615810, 0.689999997615810, 0.689999997615810 );
#234 = AXIS2_PLACEMENT_3D( '', #309, #310, #311 );
#235 = PRE_DEFINED_MARKER( '' );
#236 = COLOUR_RGB( '', 0.689999997615810, 0.689999997615810, 0.689999997615810 );
#237 = SURFACE_SIDE_STYLE( '', ( #312 ) );
#238 = EDGE_LOOP( '', ( #313, #314, #315, #316 ) );
#239 = AXIS2_PLACEMENT_3D( '', #317, #318, #319 );
#240 = SURFACE_SIDE_STYLE( '', ( #320 ) );
#241 = EDGE_LOOP( '', ( #321, #322 ) );
#242 = EDGE_LOOP( '', ( #323, #324 ) );
#243 = AXIS2_PLACEMENT_3D( '', #325, #326, #327 );
#244 = DRAUGHTING_PRE_DEFINED_CURVE_FONT( 'continuous' );
#245 = COLOUR_RGB( '', 0.689999997615810, 0.689999997615810, 0.689999997615810 );
#246 = AXIS2_PLACEMENT_3D( '', #328, #329, #330 );
#247 = SURFACE_SIDE_STYLE( '', ( #331 ) );
#248 = EDGE_LOOP( '', ( #332, #333, #334, #335 ) );
#249 = AXIS2_PLACEMENT_3D( '', #336, #337, #338 );
#250 = PRE_DEFINED_MARKER( '' );
#251 = COLOUR_RGB( '', 0.689999997615810, 0.689999997615810, 0.689999997615810 );
#252 = PRE_DEFINED_MARKER( '' );
#253 = COLOUR_RGB( '', 0.689999997615810, 0.689999997615810, 0.689999997615810 );
#254 = DRAUGHTING_PRE_DEFINED_CURVE_FONT( 'continuous' );
#255 = COLOUR_RGB( '', 0.689999997615810, 0.689999997615810, 0.689999997615810 );
#256 = CARTESIAN_POINT( '', ( 0.000000000000000, 7.65378971138986E-015, 62.5000000000000 ) );
#257 = VECTOR( '', #339, 1.00000000000000 );
#258 = PRE_DEFINED_MARKER( '' );
#259 = COLOUR_RGB( '', 0.689999997615810, 0.689999997615810, 0.689999997615810 );
#260 = DRAUGHTING_PRE_DEFINED_CURVE_FONT( 'continuous' );
#261 = COLOUR_RGB( '', 0.689999997615810, 0.689999997615810, 0.689999997615810 );
#262 = AXIS2_PLACEMENT_3D( '', #340, #341, #342 );
#263 = PRE_DEFINED_MARKER( '' );
#264 = COLOUR_RGB( '', 0.689999997615810, 0.689999997615810, 0.689999997615810 );
#266 = SURFACE_STYLE_FILL_AREA( #343 );
#267 = SURFACE_STYLE_FILL_AREA( #344 );
#268 = ORIENTED_EDGE( '', *, *, #57, .F. );
#269 = ORIENTED_EDGE( '', *, *, #81, .T. );
#270 = ORIENTED_EDGE( '', *, *, #97, .F. );
#271 = ORIENTED_EDGE( '', *, *, #61, .T. );
#272 = CARTESIAN_POINT( '', ( 0.000000000000000, 0.000000000000000, 0.000000000000000 ) );
#273 = DIRECTION( '', ( -1.00000000000000, -0.000000000000000, -0.000000000000000 ) );
#274 = DIRECTION( '', ( 0.000000000000000, 0.000000000000000, -1.00000000000000 ) );
#275 = DIRECTION( '', ( 1.00000000000000, 0.000000000000000, 0.000000000000000 ) );
#276 = CARTESIAN_POINT( '', ( 0.000000000000000, 0.000000000000000, 0.000000000000000 ) );
#277 = DIRECTION( '', ( 1.00000000000000, -0.000000000000000, 0.000000000000000 ) );
#278 = DIRECTION( '', ( 0.000000000000000, 0.000000000000000, -1.00000000000000 ) );
#279 = CARTESIAN_POINT( '', ( 5000.00000000000, 0.000000000000000, 0.000000000000000 ) );
#280 = DIRECTION( '', ( -1.00000000000000, 0.000000000000000, 0.000000000000000 ) );
#281 = DIRECTION( '', ( 0.000000000000000, 0.000000000000000, -1.00000000000000 ) );
#282 = CARTESIAN_POINT( '', ( 0.000000000000000, 0.000000000000000, 0.000000000000000 ) );
#283 = DIRECTION( '', ( 1.00000000000000, -0.000000000000000, 0.000000000000000 ) );
#284 = DIRECTION( '', ( 0.000000000000000, 0.000000000000000, -1.00000000000000 ) );
#285 = CARTESIAN_POINT( '', ( 5000.00000000000, 0.000000000000000, 0.000000000000000 ) );
#286 = DIRECTION( '', ( 1.00000000000000, 0.000000000000000, 0.000000000000000 ) );
#287 = DIRECTION( '', ( 0.000000000000000, 0.000000000000000, -1.00000000000000 ) );
#288 = CARTESIAN_POINT( '', ( 5000.00000000000, 0.000000000000000, 0.000000000000000 ) );
#289 = DIRECTION( '', ( 1.00000000000000, 0.000000000000000, 0.000000000000000 ) );
#290 = DIRECTION( '', ( 0.000000000000000, 0.000000000000000, -1.00000000000000 ) );
#291 = DIRECTION( '', ( -1.00000000000000, 0.000000000000000, 0.000000000000000 ) );
#292 = DIRECTION( '', ( 1.00000000000000, 0.000000000000000, 0.000000000000000 ) );
#293 = SURFACE_STYLE_FILL_AREA( #345 );
#294 = ORIENTED_EDGE( '', *, *, #73, .F. );
#295 = ORIENTED_EDGE( '', *, *, #63, .F. );
#296 = ORIENTED_EDGE( '', *, *, #71, .F. );
#297 = ORIENTED_EDGE( '', *, *, #67, .T. );
#298 = CARTESIAN_POINT( '', ( 0.000000000000000, 0.000000000000000, 0.000000000000000 ) );
#299 = DIRECTION( '', ( -1.00000000000000, -0.000000000000000, -0.000000000000000 ) );
#300 = DIRECTION( '', ( 0.000000000000000, 0.000000000000000, -1.00000000000000 ) );
#301 = SURFACE_STYLE_FILL_AREA( #346 );
#302 = ORIENTED_EDGE( '', *, *, #81, .F. );
#303 = ORIENTED_EDGE( '', *, *, #101, .F. );
#304 = ORIENTED_EDGE( '', *, *, #59, .T. );
#305 = ORIENTED_EDGE( '', *, *, #63, .T. );
#306 = CARTESIAN_POINT( '', ( 0.000000000000000, 0.000000000000000, 0.000000000000000 ) );
#307 = DIRECTION( '', ( 1.00000000000000, 0.000000000000000, 0.000000000000000 ) );
#308 = DIRECTION( '', ( 0.000000000000000, 0.000000000000000, -1.00000000000000 ) );
#309 = CARTESIAN_POINT( '', ( 0.000000000000000, 0.000000000000000, 0.000000000000000 ) );
#310 = DIRECTION( '', ( 1.00000000000000, -0.000000000000000, 0.000000000000000 ) );
#311 = DIRECTION( '', ( 0.000000000000000, 0.000000000000000, -1.00000000000000 ) );
#312 = SURFACE_STYLE_FILL_AREA( #347 );
#313 = ORIENTED_EDGE( '', *, *, #57, .T. );
#314 = ORIENTED_EDGE( '', *, *, #89, .T. );
#315 = ORIENTED_EDGE( '', *, *, #97, .T. );
#316 = ORIENTED_EDGE( '', *, *, #101, .T. );
#317 = CARTESIAN_POINT( '', ( 0.000000000000000, 0.000000000000000, 0.000000000000000 ) );
#318 = DIRECTION( '', ( -1.00000000000000, -0.000000000000000, -0.000000000000000 ) );
#319 = DIRECTION( '', ( 0.000000000000000, 0.000000000000000, -1.00000000000000 ) );
#320 = SURFACE_STYLE_FILL_AREA( #348 );
#321 = ORIENTED_EDGE( '', *, *, #89, .F. );
#322 = ORIENTED_EDGE( '', *, *, #61, .F. );
#323 = ORIENTED_EDGE( '', *, *, #65, .F. );
#324 = ORIENTED_EDGE( '', *, *, #67, .F. );
#325 = CARTESIAN_POINT( '', ( 5000.00000000000, 0.000000000000000, 0.000000000000000 ) );
#326 = DIRECTION( '', ( 1.00000000000000, 0.000000000000000, 0.000000000000000 ) );
#327 = DIRECTION( '', ( 0.000000000000000, 0.000000000000000, -1.00000000000000 ) );
#328 = CARTESIAN_POINT( '', ( 5000.00000000000, 0.000000000000000, 0.000000000000000 ) );
#329 = DIRECTION( '', ( -1.00000000000000, 0.000000000000000, 0.000000000000000 ) );
#330 = DIRECTION( '', ( 0.000000000000000, 0.000000000000000, -1.00000000000000 ) );
#331 = SURFACE_STYLE_FILL_AREA( #349 );
#332 = ORIENTED_EDGE( '', *, *, #73, .T. );
#333 = ORIENTED_EDGE( '', *, *, #65, .T. );
#334 = ORIENTED_EDGE( '', *, *, #71, .T. );
#335 = ORIENTED_EDGE( '', *, *, #59, .F. );
#336 = CARTESIAN_POINT( '', ( 0.000000000000000, 0.000000000000000, 0.000000000000000 ) );
#337 = DIRECTION( '', ( -1.00000000000000, -0.000000000000000, -0.000000000000000 ) );
#338 = DIRECTION( '', ( 0.000000000000000, 0.000000000000000, -1.00000000000000 ) );
#339 = DIRECTION( '', ( -1.00000000000000, -0.000000000000000, -0.000000000000000 ) );
#340 = CARTESIAN_POINT( '', ( 0.000000000000000, 0.000000000000000, 0.000000000000000 ) );
#341 = DIRECTION( '', ( 1.00000000000000, -0.000000000000000, 0.000000000000000 ) );
#342 = DIRECTION( '', ( 0.000000000000000, 0.000000000000000, -1.00000000000000 ) );
#343 = FILL_AREA_STYLE( '', ( #350 ) );
#344 = FILL_AREA_STYLE( '', ( #351 ) );
#345 = FILL_AREA_STYLE( '', ( #352 ) );
#346 = FILL_AREA_STYLE( '', ( #353 ) );
#347 = FILL_AREA_STYLE( '', ( #354 ) );
#348 = FILL_AREA_STYLE( '', ( #355 ) );
#349 = FILL_AREA_STYLE( '', ( #356 ) );
#350 = FILL_AREA_STYLE_COLOUR( '', #357 );
#351 = FILL_AREA_STYLE_COLOUR( '', #358 );
#352 = FILL_AREA_STYLE_COLOUR( '', #359 );
#353 = FILL_AREA_STYLE_COLOUR( '', #360 );
#354 = FILL_AREA_STYLE_COLOUR( '', #361 );
#355 = FILL_AREA_STYLE_COLOUR( '', #362 );
#356 = FILL_AREA_STYLE_COLOUR( '', #363 );
#357 = COLOUR_RGB( '', 0.689999997615810, 0.689999997615810, 0.689999997615810 );
#358 = COLOUR_RGB( '', 0.689999997615810, 0.689999997615810, 0.689999997615810 );
#359 = COLOUR_RGB( '', 0.689999997615810, 0.689999997615810, 0.689999997615810 );
#360 = COLOUR_RGB( '', 0.689999997615810, 0.689999997615810, 0.689999997615810 );
#361 = COLOUR_RGB( '', 0.689999997615810, 0.689999997615810, 0.689999997615810 );
#362 = COLOUR_RGB( '', 0.689999997615810, 0.689999997615810, 0.689999997615810 );
#363 = COLOUR_RGB( '', 0.689999997615810, 0.689999997615810, 0.689999997615810 );
ENDSEC;
END-ISO-10303-21;
