ISO-10303-21;
HEADER;
/* Generated by software containing ST-Developer
 * from STEP Tools, Inc. (www.steptools.com) 
 */

FILE_DESCRIPTION(
/* description */ (''),
/* implementation_level */ '2;1');

FILE_NAME(
/* name */ 
'Q:\\Ric010\\FF7\\FIPlastiCAD\\FIP\\Lavoro\\PVC Fittings\\PVC Fittings
 STEP\\DIFV\\DIFV090075300.ipt.stp',
/* time_stamp */ '2013-10-01T14:37:15+02:00',
/* author */ ('bfaro'),
/* organization */ (''),
/* preprocessor_version */ 'ST-DEVELOPER v15.2',
/* originating_system */ 'Autodesk Inventor 2014',
/* authorisation */ '');

FILE_SCHEMA (('AUTOMOTIVE_DESIGN { 1 0 10303 214 3 1 1 }'));
ENDSEC;

DATA;
#10=SHAPE_REPRESENTATION_RELATIONSHIP('SRR','None',#544,#11);
#11=ADVANCED_BREP_SHAPE_REPRESENTATION($,(#321),#535);
#12=STYLED_ITEM($,(#553),#315);
#13=STYLED_ITEM($,(#552),#321);
#14=CYLINDRICAL_SURFACE($,#335,54.);
#15=CYLINDRICAL_SURFACE($,#340,45.);
#16=CYLINDRICAL_SURFACE($,#344,54.);
#17=CYLINDRICAL_SURFACE($,#347,42.463);
#18=CYLINDRICAL_SURFACE($,#351,36.5);
#19=CYLINDRICAL_SURFACE($,#355,37.5);
#20=FACE_BOUND($,#67,.T.);
#21=FACE_BOUND($,#69,.T.);
#22=FACE_BOUND($,#79,.T.);
#23=FACE_BOUND($,#81,.T.);
#24=FACE_BOUND($,#83,.T.);
#25=FACE_BOUND($,#85,.T.);
#26=FACE_BOUND($,#87,.T.);
#27=FACE_BOUND($,#88,.T.);
#28=FACE_BOUND($,#89,.T.);
#29=FACE_BOUND($,#91,.T.);
#30=FACE_BOUND($,#92,.T.);
#31=FACE_BOUND($,#93,.T.);
#32=FACE_BOUND($,#95,.T.);
#33=FACE_BOUND($,#97,.T.);
#34=FACE_BOUND($,#99,.T.);
#35=CIRCLE($,#324,54.);
#36=CIRCLE($,#326,54.);
#37=CIRCLE($,#336,54.);
#38=CIRCLE($,#338,45.);
#39=CIRCLE($,#339,37.5);
#40=CIRCLE($,#341,45.);
#41=CIRCLE($,#343,54.);
#42=CIRCLE($,#346,42.463);
#43=CIRCLE($,#348,42.463);
#44=CIRCLE($,#350,36.5);
#45=CIRCLE($,#352,36.5);
#46=CIRCLE($,#354,37.5);
#47=FACE_OUTER_BOUND($,#66,.T.);
#48=FACE_OUTER_BOUND($,#68,.T.);
#49=FACE_OUTER_BOUND($,#70,.T.);
#50=FACE_OUTER_BOUND($,#71,.T.);
#51=FACE_OUTER_BOUND($,#72,.T.);
#52=FACE_OUTER_BOUND($,#73,.T.);
#53=FACE_OUTER_BOUND($,#74,.T.);
#54=FACE_OUTER_BOUND($,#75,.T.);
#55=FACE_OUTER_BOUND($,#76,.T.);
#56=FACE_OUTER_BOUND($,#77,.T.);
#57=FACE_OUTER_BOUND($,#78,.T.);
#58=FACE_OUTER_BOUND($,#80,.T.);
#59=FACE_OUTER_BOUND($,#82,.T.);
#60=FACE_OUTER_BOUND($,#84,.T.);
#61=FACE_OUTER_BOUND($,#86,.T.);
#62=FACE_OUTER_BOUND($,#90,.T.);
#63=FACE_OUTER_BOUND($,#94,.T.);
#64=FACE_OUTER_BOUND($,#96,.T.);
#65=FACE_OUTER_BOUND($,#98,.T.);
#66=EDGE_LOOP($,(#212,#213,#214,#215,#216,#217,#218,#219));
#67=EDGE_LOOP($,(#220));
#68=EDGE_LOOP($,(#221,#222,#223,#224,#225,#226,#227,#228));
#69=EDGE_LOOP($,(#229));
#70=EDGE_LOOP($,(#230,#231,#232,#233));
#71=EDGE_LOOP($,(#234,#235,#236,#237));
#72=EDGE_LOOP($,(#238,#239,#240,#241));
#73=EDGE_LOOP($,(#242,#243,#244,#245));
#74=EDGE_LOOP($,(#246,#247,#248,#249));
#75=EDGE_LOOP($,(#250,#251,#252,#253));
#76=EDGE_LOOP($,(#254,#255,#256,#257));
#77=EDGE_LOOP($,(#258,#259,#260,#261));
#78=EDGE_LOOP($,(#262));
#79=EDGE_LOOP($,(#263));
#80=EDGE_LOOP($,(#264));
#81=EDGE_LOOP($,(#265));
#82=EDGE_LOOP($,(#266));
#83=EDGE_LOOP($,(#267));
#84=EDGE_LOOP($,(#268));
#85=EDGE_LOOP($,(#269));
#86=EDGE_LOOP($,(#270));
#87=EDGE_LOOP($,(#271));
#88=EDGE_LOOP($,(#272));
#89=EDGE_LOOP($,(#273));
#90=EDGE_LOOP($,(#274));
#91=EDGE_LOOP($,(#275));
#92=EDGE_LOOP($,(#276));
#93=EDGE_LOOP($,(#277));
#94=EDGE_LOOP($,(#278));
#95=EDGE_LOOP($,(#279));
#96=EDGE_LOOP($,(#280));
#97=EDGE_LOOP($,(#281));
#98=EDGE_LOOP($,(#282));
#99=EDGE_LOOP($,(#283));
#100=LINE($,#452,#124);
#101=LINE($,#454,#125);
#102=LINE($,#456,#126);
#103=LINE($,#458,#127);
#104=LINE($,#460,#128);
#105=LINE($,#462,#129);
#106=LINE($,#464,#130);
#107=LINE($,#465,#131);
#108=LINE($,#471,#132);
#109=LINE($,#473,#133);
#110=LINE($,#475,#134);
#111=LINE($,#477,#135);
#112=LINE($,#479,#136);
#113=LINE($,#481,#137);
#114=LINE($,#483,#138);
#115=LINE($,#484,#139);
#116=LINE($,#488,#140);
#117=LINE($,#489,#141);
#118=LINE($,#491,#142);
#119=LINE($,#493,#143);
#120=LINE($,#495,#144);
#121=LINE($,#497,#145);
#122=LINE($,#499,#146);
#123=LINE($,#501,#147);
#124=VECTOR($,#360,45.5634918610405);
#125=VECTOR($,#361,45.5634918610405);
#126=VECTOR($,#362,45.5634918610405);
#127=VECTOR($,#363,45.5634918610405);
#128=VECTOR($,#364,45.5634918610405);
#129=VECTOR($,#365,45.5634918610405);
#130=VECTOR($,#366,45.5634918610404);
#131=VECTOR($,#367,45.5634918610405);
#132=VECTOR($,#372,45.5634918610405);
#133=VECTOR($,#373,45.5634918610405);
#134=VECTOR($,#374,45.5634918610404);
#135=VECTOR($,#375,45.5634918610405);
#136=VECTOR($,#376,45.5634918610405);
#137=VECTOR($,#377,45.5634918610405);
#138=VECTOR($,#378,45.5634918610405);
#139=VECTOR($,#379,45.5634918610405);
#140=VECTOR($,#384,17.);
#141=VECTOR($,#385,17.);
#142=VECTOR($,#388,17.);
#143=VECTOR($,#391,17.);
#144=VECTOR($,#394,17.);
#145=VECTOR($,#397,17.);
#146=VECTOR($,#400,17.);
#147=VECTOR($,#403,17.);
#148=VERTEX_POINT($,#450);
#149=VERTEX_POINT($,#451);
#150=VERTEX_POINT($,#453);
#151=VERTEX_POINT($,#455);
#152=VERTEX_POINT($,#457);
#153=VERTEX_POINT($,#459);
#154=VERTEX_POINT($,#461);
#155=VERTEX_POINT($,#463);
#156=VERTEX_POINT($,#466);
#157=VERTEX_POINT($,#469);
#158=VERTEX_POINT($,#470);
#159=VERTEX_POINT($,#472);
#160=VERTEX_POINT($,#474);
#161=VERTEX_POINT($,#476);
#162=VERTEX_POINT($,#478);
#163=VERTEX_POINT($,#480);
#164=VERTEX_POINT($,#482);
#165=VERTEX_POINT($,#485);
#166=VERTEX_POINT($,#504);
#167=VERTEX_POINT($,#507);
#168=VERTEX_POINT($,#509);
#169=VERTEX_POINT($,#512);
#170=VERTEX_POINT($,#515);
#171=VERTEX_POINT($,#519);
#172=VERTEX_POINT($,#522);
#173=VERTEX_POINT($,#525);
#174=VERTEX_POINT($,#528);
#175=VERTEX_POINT($,#531);
#176=EDGE_CURVE($,#148,#149,#100,.T.);
#177=EDGE_CURVE($,#149,#150,#101,.T.);
#178=EDGE_CURVE($,#150,#151,#102,.T.);
#179=EDGE_CURVE($,#151,#152,#103,.T.);
#180=EDGE_CURVE($,#152,#153,#104,.T.);
#181=EDGE_CURVE($,#153,#154,#105,.T.);
#182=EDGE_CURVE($,#154,#155,#106,.T.);
#183=EDGE_CURVE($,#155,#148,#107,.T.);
#184=EDGE_CURVE($,#156,#156,#35,.T.);
#185=EDGE_CURVE($,#157,#158,#108,.T.);
#186=EDGE_CURVE($,#159,#157,#109,.T.);
#187=EDGE_CURVE($,#160,#159,#110,.T.);
#188=EDGE_CURVE($,#161,#160,#111,.T.);
#189=EDGE_CURVE($,#162,#161,#112,.T.);
#190=EDGE_CURVE($,#163,#162,#113,.T.);
#191=EDGE_CURVE($,#164,#163,#114,.T.);
#192=EDGE_CURVE($,#158,#164,#115,.T.);
#193=EDGE_CURVE($,#165,#165,#36,.T.);
#194=EDGE_CURVE($,#157,#148,#116,.T.);
#195=EDGE_CURVE($,#159,#155,#117,.T.);
#196=EDGE_CURVE($,#160,#154,#118,.T.);
#197=EDGE_CURVE($,#161,#153,#119,.T.);
#198=EDGE_CURVE($,#162,#152,#120,.T.);
#199=EDGE_CURVE($,#163,#151,#121,.T.);
#200=EDGE_CURVE($,#164,#150,#122,.T.);
#201=EDGE_CURVE($,#158,#149,#123,.T.);
#202=EDGE_CURVE($,#166,#166,#37,.T.);
#203=EDGE_CURVE($,#167,#167,#38,.T.);
#204=EDGE_CURVE($,#168,#168,#39,.T.);
#205=EDGE_CURVE($,#169,#169,#40,.T.);
#206=EDGE_CURVE($,#170,#170,#41,.T.);
#207=EDGE_CURVE($,#171,#171,#42,.T.);
#208=EDGE_CURVE($,#172,#172,#43,.T.);
#209=EDGE_CURVE($,#173,#173,#44,.T.);
#210=EDGE_CURVE($,#174,#174,#45,.T.);
#211=EDGE_CURVE($,#175,#175,#46,.T.);
#212=ORIENTED_EDGE($,*,*,#176,.T.);
#213=ORIENTED_EDGE($,*,*,#177,.T.);
#214=ORIENTED_EDGE($,*,*,#178,.T.);
#215=ORIENTED_EDGE($,*,*,#179,.T.);
#216=ORIENTED_EDGE($,*,*,#180,.T.);
#217=ORIENTED_EDGE($,*,*,#181,.T.);
#218=ORIENTED_EDGE($,*,*,#182,.T.);
#219=ORIENTED_EDGE($,*,*,#183,.T.);
#220=ORIENTED_EDGE($,*,*,#184,.F.);
#221=ORIENTED_EDGE($,*,*,#185,.F.);
#222=ORIENTED_EDGE($,*,*,#186,.F.);
#223=ORIENTED_EDGE($,*,*,#187,.F.);
#224=ORIENTED_EDGE($,*,*,#188,.F.);
#225=ORIENTED_EDGE($,*,*,#189,.F.);
#226=ORIENTED_EDGE($,*,*,#190,.F.);
#227=ORIENTED_EDGE($,*,*,#191,.F.);
#228=ORIENTED_EDGE($,*,*,#192,.F.);
#229=ORIENTED_EDGE($,*,*,#193,.F.);
#230=ORIENTED_EDGE($,*,*,#186,.T.);
#231=ORIENTED_EDGE($,*,*,#194,.T.);
#232=ORIENTED_EDGE($,*,*,#183,.F.);
#233=ORIENTED_EDGE($,*,*,#195,.F.);
#234=ORIENTED_EDGE($,*,*,#187,.T.);
#235=ORIENTED_EDGE($,*,*,#195,.T.);
#236=ORIENTED_EDGE($,*,*,#182,.F.);
#237=ORIENTED_EDGE($,*,*,#196,.F.);
#238=ORIENTED_EDGE($,*,*,#188,.T.);
#239=ORIENTED_EDGE($,*,*,#196,.T.);
#240=ORIENTED_EDGE($,*,*,#181,.F.);
#241=ORIENTED_EDGE($,*,*,#197,.F.);
#242=ORIENTED_EDGE($,*,*,#189,.T.);
#243=ORIENTED_EDGE($,*,*,#197,.T.);
#244=ORIENTED_EDGE($,*,*,#180,.F.);
#245=ORIENTED_EDGE($,*,*,#198,.F.);
#246=ORIENTED_EDGE($,*,*,#190,.T.);
#247=ORIENTED_EDGE($,*,*,#198,.T.);
#248=ORIENTED_EDGE($,*,*,#179,.F.);
#249=ORIENTED_EDGE($,*,*,#199,.F.);
#250=ORIENTED_EDGE($,*,*,#191,.T.);
#251=ORIENTED_EDGE($,*,*,#199,.T.);
#252=ORIENTED_EDGE($,*,*,#178,.F.);
#253=ORIENTED_EDGE($,*,*,#200,.F.);
#254=ORIENTED_EDGE($,*,*,#192,.T.);
#255=ORIENTED_EDGE($,*,*,#200,.T.);
#256=ORIENTED_EDGE($,*,*,#177,.F.);
#257=ORIENTED_EDGE($,*,*,#201,.F.);
#258=ORIENTED_EDGE($,*,*,#185,.T.);
#259=ORIENTED_EDGE($,*,*,#201,.T.);
#260=ORIENTED_EDGE($,*,*,#176,.F.);
#261=ORIENTED_EDGE($,*,*,#194,.F.);
#262=ORIENTED_EDGE($,*,*,#202,.F.);
#263=ORIENTED_EDGE($,*,*,#193,.T.);
#264=ORIENTED_EDGE($,*,*,#203,.F.);
#265=ORIENTED_EDGE($,*,*,#204,.T.);
#266=ORIENTED_EDGE($,*,*,#205,.F.);
#267=ORIENTED_EDGE($,*,*,#203,.T.);
#268=ORIENTED_EDGE($,*,*,#206,.F.);
#269=ORIENTED_EDGE($,*,*,#205,.T.);
#270=ORIENTED_EDGE($,*,*,#184,.T.);
#271=ORIENTED_EDGE($,*,*,#206,.T.);
#272=ORIENTED_EDGE($,*,*,#207,.F.);
#273=ORIENTED_EDGE($,*,*,#202,.T.);
#274=ORIENTED_EDGE($,*,*,#208,.F.);
#275=ORIENTED_EDGE($,*,*,#207,.T.);
#276=ORIENTED_EDGE($,*,*,#209,.F.);
#277=ORIENTED_EDGE($,*,*,#208,.T.);
#278=ORIENTED_EDGE($,*,*,#210,.F.);
#279=ORIENTED_EDGE($,*,*,#209,.T.);
#280=ORIENTED_EDGE($,*,*,#211,.F.);
#281=ORIENTED_EDGE($,*,*,#210,.T.);
#282=ORIENTED_EDGE($,*,*,#204,.F.);
#283=ORIENTED_EDGE($,*,*,#211,.T.);
#284=PLANE($,#323);
#285=PLANE($,#325);
#286=PLANE($,#327);
#287=PLANE($,#328);
#288=PLANE($,#329);
#289=PLANE($,#330);
#290=PLANE($,#331);
#291=PLANE($,#332);
#292=PLANE($,#333);
#293=PLANE($,#334);
#294=PLANE($,#337);
#295=PLANE($,#342);
#296=PLANE($,#345);
#297=PLANE($,#349);
#298=PLANE($,#353);
#299=ADVANCED_FACE($,(#47,#20),#284,.F.);
#300=ADVANCED_FACE($,(#48,#21),#285,.T.);
#301=ADVANCED_FACE($,(#49),#286,.T.);
#302=ADVANCED_FACE($,(#50),#287,.T.);
#303=ADVANCED_FACE($,(#51),#288,.T.);
#304=ADVANCED_FACE($,(#52),#289,.T.);
#305=ADVANCED_FACE($,(#53),#290,.T.);
#306=ADVANCED_FACE($,(#54),#291,.T.);
#307=ADVANCED_FACE($,(#55),#292,.T.);
#308=ADVANCED_FACE($,(#56),#293,.T.);
#309=ADVANCED_FACE($,(#57,#22),#14,.T.);
#310=ADVANCED_FACE($,(#58,#23),#294,.T.);
#311=ADVANCED_FACE($,(#59,#24),#15,.T.);
#312=ADVANCED_FACE($,(#60,#25),#295,.T.);
#313=ADVANCED_FACE($,(#61,#26),#16,.T.);
#314=ADVANCED_FACE($,(#27,#28),#296,.T.);
#315=ADVANCED_FACE($,(#62,#29),#17,.F.);
#316=ADVANCED_FACE($,(#30,#31),#297,.T.);
#317=ADVANCED_FACE($,(#63,#32),#18,.F.);
#318=ADVANCED_FACE($,(#64,#33),#298,.T.);
#319=ADVANCED_FACE($,(#65,#34),#19,.F.);
#320=CLOSED_SHELL($,(#299,#300,#301,#302,#303,#304,#305,#306,#307,#308,
#309,#310,#311,#312,#313,#314,#315,#316,#317,#318,#319));
#321=MANIFOLD_SOLID_BREP('Solido1',#320);
#322=AXIS2_PLACEMENT_3D('placement',#448,#356,#357);
#323=AXIS2_PLACEMENT_3D($,#449,#358,#359);
#324=AXIS2_PLACEMENT_3D($,#467,#368,#369);
#325=AXIS2_PLACEMENT_3D($,#468,#370,#371);
#326=AXIS2_PLACEMENT_3D($,#486,#380,#381);
#327=AXIS2_PLACEMENT_3D($,#487,#382,#383);
#328=AXIS2_PLACEMENT_3D($,#490,#386,#387);
#329=AXIS2_PLACEMENT_3D($,#492,#389,#390);
#330=AXIS2_PLACEMENT_3D($,#494,#392,#393);
#331=AXIS2_PLACEMENT_3D($,#496,#395,#396);
#332=AXIS2_PLACEMENT_3D($,#498,#398,#399);
#333=AXIS2_PLACEMENT_3D($,#500,#401,#402);
#334=AXIS2_PLACEMENT_3D($,#502,#404,#405);
#335=AXIS2_PLACEMENT_3D($,#503,#406,#407);
#336=AXIS2_PLACEMENT_3D($,#505,#408,#409);
#337=AXIS2_PLACEMENT_3D($,#506,#410,#411);
#338=AXIS2_PLACEMENT_3D($,#508,#412,#413);
#339=AXIS2_PLACEMENT_3D($,#510,#414,#415);
#340=AXIS2_PLACEMENT_3D($,#511,#416,#417);
#341=AXIS2_PLACEMENT_3D($,#513,#418,#419);
#342=AXIS2_PLACEMENT_3D($,#514,#420,#421);
#343=AXIS2_PLACEMENT_3D($,#516,#422,#423);
#344=AXIS2_PLACEMENT_3D($,#517,#424,#425);
#345=AXIS2_PLACEMENT_3D($,#518,#426,#427);
#346=AXIS2_PLACEMENT_3D($,#520,#428,#429);
#347=AXIS2_PLACEMENT_3D($,#521,#430,#431);
#348=AXIS2_PLACEMENT_3D($,#523,#432,#433);
#349=AXIS2_PLACEMENT_3D($,#524,#434,#435);
#350=AXIS2_PLACEMENT_3D($,#526,#436,#437);
#351=AXIS2_PLACEMENT_3D($,#527,#438,#439);
#352=AXIS2_PLACEMENT_3D($,#529,#440,#441);
#353=AXIS2_PLACEMENT_3D($,#530,#442,#443);
#354=AXIS2_PLACEMENT_3D($,#532,#444,#445);
#355=AXIS2_PLACEMENT_3D($,#533,#446,#447);
#356=DIRECTION('axis',(0.,0.,1.));
#357=DIRECTION('refdir',(1.,0.,0.));
#358=DIRECTION('center_axis',(0.,0.,1.));
#359=DIRECTION('ref_axis',(1.,0.,0.));
#360=DIRECTION($,(0.923879532511287,-0.38268343236509,0.));
#361=DIRECTION($,(0.38268343236509,-0.923879532511287,0.));
#362=DIRECTION($,(-0.38268343236509,-0.923879532511287,0.));
#363=DIRECTION($,(-0.923879532511287,-0.38268343236509,0.));
#364=DIRECTION($,(-0.923879532511287,0.38268343236509,0.));
#365=DIRECTION($,(-0.38268343236509,0.923879532511287,0.));
#366=DIRECTION($,(0.38268343236509,0.923879532511287,0.));
#367=DIRECTION($,(0.923879532511287,0.38268343236509,0.));
#368=DIRECTION('center_axis',(0.,0.,-1.));
#369=DIRECTION('ref_axis',(0.,-1.,0.));
#370=DIRECTION('center_axis',(0.,0.,1.));
#371=DIRECTION('ref_axis',(1.,0.,0.));
#372=DIRECTION($,(0.923879532511287,-0.38268343236509,0.));
#373=DIRECTION($,(0.923879532511287,0.38268343236509,0.));
#374=DIRECTION($,(0.38268343236509,0.923879532511287,0.));
#375=DIRECTION($,(-0.38268343236509,0.923879532511287,0.));
#376=DIRECTION($,(-0.923879532511287,0.38268343236509,0.));
#377=DIRECTION($,(-0.923879532511287,-0.38268343236509,0.));
#378=DIRECTION($,(-0.38268343236509,-0.923879532511287,0.));
#379=DIRECTION($,(0.38268343236509,-0.923879532511287,0.));
#380=DIRECTION('center_axis',(0.,0.,1.));
#381=DIRECTION('ref_axis',(0.,-1.,0.));
#382=DIRECTION('center_axis',(-0.38268343236509,0.923879532511287,0.));
#383=DIRECTION('ref_axis',(0.923879532511287,0.38268343236509,0.));
#384=DIRECTION($,(0.,0.,-1.));
#385=DIRECTION($,(0.,0.,-1.));
#386=DIRECTION('center_axis',(-0.923879532511287,0.38268343236509,0.));
#387=DIRECTION('ref_axis',(0.38268343236509,0.923879532511287,0.));
#388=DIRECTION($,(0.,0.,-1.));
#389=DIRECTION('center_axis',(-0.923879532511287,-0.38268343236509,0.));
#390=DIRECTION('ref_axis',(-0.38268343236509,0.923879532511287,0.));
#391=DIRECTION($,(0.,0.,-1.));
#392=DIRECTION('center_axis',(-0.38268343236509,-0.923879532511287,0.));
#393=DIRECTION('ref_axis',(-0.923879532511287,0.38268343236509,0.));
#394=DIRECTION($,(0.,0.,-1.));
#395=DIRECTION('center_axis',(0.38268343236509,-0.923879532511287,0.));
#396=DIRECTION('ref_axis',(-0.923879532511287,-0.38268343236509,0.));
#397=DIRECTION($,(0.,0.,-1.));
#398=DIRECTION('center_axis',(0.923879532511287,-0.38268343236509,0.));
#399=DIRECTION('ref_axis',(-0.38268343236509,-0.923879532511287,0.));
#400=DIRECTION($,(0.,0.,-1.));
#401=DIRECTION('center_axis',(0.923879532511287,0.38268343236509,0.));
#402=DIRECTION('ref_axis',(0.38268343236509,-0.923879532511287,0.));
#403=DIRECTION($,(0.,0.,-1.));
#404=DIRECTION('center_axis',(0.38268343236509,0.923879532511287,0.));
#405=DIRECTION('ref_axis',(0.923879532511287,-0.38268343236509,0.));
#406=DIRECTION('center_axis',(0.,0.,1.));
#407=DIRECTION('ref_axis',(0.,-1.,0.));
#408=DIRECTION('center_axis',(0.,0.,1.));
#409=DIRECTION('ref_axis',(0.,-1.,0.));
#410=DIRECTION('center_axis',(0.,0.,-1.));
#411=DIRECTION('ref_axis',(-1.,0.,0.));
#412=DIRECTION('center_axis',(0.,0.,1.));
#413=DIRECTION('ref_axis',(0.,-1.,0.));
#414=DIRECTION('center_axis',(0.,0.,1.));
#415=DIRECTION('ref_axis',(0.,-1.,0.));
#416=DIRECTION('center_axis',(0.,0.,1.));
#417=DIRECTION('ref_axis',(0.,-1.,0.));
#418=DIRECTION('center_axis',(0.,0.,1.));
#419=DIRECTION('ref_axis',(0.,-1.,0.));
#420=DIRECTION('center_axis',(0.,0.,-1.));
#421=DIRECTION('ref_axis',(-1.,0.,0.));
#422=DIRECTION('center_axis',(0.,0.,1.));
#423=DIRECTION('ref_axis',(0.,-1.,0.));
#424=DIRECTION('center_axis',(0.,0.,1.));
#425=DIRECTION('ref_axis',(0.,-1.,0.));
#426=DIRECTION('center_axis',(0.,0.,1.));
#427=DIRECTION('ref_axis',(1.,0.,0.));
#428=DIRECTION('center_axis',(0.,0.,1.));
#429=DIRECTION('ref_axis',(0.,-1.,0.));
#430=DIRECTION('center_axis',(0.,0.,1.));
#431=DIRECTION('ref_axis',(0.,-1.,0.));
#432=DIRECTION('center_axis',(0.,0.,1.));
#433=DIRECTION('ref_axis',(0.,-1.,0.));
#434=DIRECTION('center_axis',(0.,0.,1.));
#435=DIRECTION('ref_axis',(1.,0.,0.));
#436=DIRECTION('center_axis',(0.,0.,1.));
#437=DIRECTION('ref_axis',(0.,-1.,0.));
#438=DIRECTION('center_axis',(0.,0.,1.));
#439=DIRECTION('ref_axis',(0.,-1.,0.));
#440=DIRECTION('center_axis',(0.,0.,1.));
#441=DIRECTION('ref_axis',(0.,-1.,0.));
#442=DIRECTION('center_axis',(0.,0.,-1.));
#443=DIRECTION('ref_axis',(-1.,0.,0.));
#444=DIRECTION('center_axis',(0.,0.,1.));
#445=DIRECTION('ref_axis',(0.,-1.,0.));
#446=DIRECTION('center_axis',(0.,0.,1.));
#447=DIRECTION('ref_axis',(0.,-1.,0.));
#448=CARTESIAN_POINT('',(0.,0.,0.));
#449=CARTESIAN_POINT('Origin',(-8.04094644992679E-015,8.04094644992679E-015,
51.));
#450=CARTESIAN_POINT('',(-1.10183055114898E-015,59.5315710160817,51.));
#451=CARTESIAN_POINT('',(42.0951775601599,42.0951775601599,51.));
#452=CARTESIAN_POINT($,(-1.10183055114898E-015,59.5315710160817,51.));
#453=CARTESIAN_POINT('',(59.5315710160817,0.,51.));
#454=CARTESIAN_POINT($,(42.0951775601599,42.0951775601599,51.));
#455=CARTESIAN_POINT('',(42.0951775601599,-42.0951775601599,51.));
#456=CARTESIAN_POINT($,(59.5315710160817,-3.29731454813055E-015,51.));
#457=CARTESIAN_POINT('',(-1.59978469600889E-014,-59.5315710160817,51.));
#458=CARTESIAN_POINT($,(42.0951775601599,-42.0951775601599,51.));
#459=CARTESIAN_POINT('',(-42.0951775601599,-42.0951775601599,51.));
#460=CARTESIAN_POINT($,(-1.59978469600889E-014,-59.5315710160817,51.));
#461=CARTESIAN_POINT('',(-59.5315710160817,8.88178419700125E-015,51.));
#462=CARTESIAN_POINT($,(-42.0951775601599,-42.0951775601599,51.));
#463=CARTESIAN_POINT('',(-42.0951775601599,42.0951775601599,51.));
#464=CARTESIAN_POINT($,(-59.5315710160817,5.39911271925786E-015,51.));
#465=CARTESIAN_POINT($,(-42.0951775601599,42.0951775601599,51.));
#466=CARTESIAN_POINT('',(6.61309271539571E-015,54.,51.));
#467=CARTESIAN_POINT('Origin',(0.,0.,51.));
#468=CARTESIAN_POINT('Origin',(-8.04094644992679E-015,8.04094644992679E-015,
68.));
#469=CARTESIAN_POINT('',(-1.10183055114898E-015,59.5315710160817,68.));
#470=CARTESIAN_POINT('',(42.0951775601599,42.0951775601599,68.));
#471=CARTESIAN_POINT($,(-1.10183055114898E-015,59.5315710160817,68.));
#472=CARTESIAN_POINT('',(-42.0951775601599,42.0951775601599,68.));
#473=CARTESIAN_POINT($,(-42.0951775601599,42.0951775601599,68.));
#474=CARTESIAN_POINT('',(-59.5315710160817,5.39911271925786E-015,68.));
#475=CARTESIAN_POINT($,(-59.5315710160817,5.39911271925786E-015,68.));
#476=CARTESIAN_POINT('',(-42.0951775601599,-42.0951775601599,68.));
#477=CARTESIAN_POINT($,(-42.0951775601599,-42.0951775601599,68.));
#478=CARTESIAN_POINT('',(-1.59978469600889E-014,-59.5315710160817,68.));
#479=CARTESIAN_POINT($,(-1.59978469600889E-014,-59.5315710160817,68.));
#480=CARTESIAN_POINT('',(42.0951775601599,-42.0951775601599,68.));
#481=CARTESIAN_POINT($,(42.0951775601599,-42.0951775601599,68.));
#482=CARTESIAN_POINT('',(59.5315710160817,-3.29731454813055E-015,68.));
#483=CARTESIAN_POINT($,(59.5315710160817,-3.29731454813055E-015,68.));
#484=CARTESIAN_POINT($,(42.0951775601599,42.0951775601599,68.));
#485=CARTESIAN_POINT('',(-6.61309271539571E-015,54.,68.));
#486=CARTESIAN_POINT('Origin',(0.,0.,68.));
#487=CARTESIAN_POINT('Origin',(-42.0951775601599,42.0951775601599,68.));
#488=CARTESIAN_POINT($,(-1.10183055114898E-015,59.5315710160817,68.));
#489=CARTESIAN_POINT($,(-42.0951775601599,42.0951775601599,68.));
#490=CARTESIAN_POINT('Origin',(-59.5315710160817,5.39911271925786E-015,
68.));
#491=CARTESIAN_POINT($,(-59.5315710160817,5.39911271925786E-015,68.));
#492=CARTESIAN_POINT('Origin',(-42.0951775601599,-42.0951775601599,68.));
#493=CARTESIAN_POINT($,(-42.0951775601599,-42.0951775601599,68.));
#494=CARTESIAN_POINT('Origin',(-1.59978469600889E-014,-59.5315710160817,
68.));
#495=CARTESIAN_POINT($,(-1.59978469600889E-014,-59.5315710160817,68.));
#496=CARTESIAN_POINT('Origin',(42.0951775601599,-42.0951775601599,68.));
#497=CARTESIAN_POINT($,(42.0951775601599,-42.0951775601599,68.));
#498=CARTESIAN_POINT('Origin',(59.5315710160817,-3.29731454813055E-015,
68.));
#499=CARTESIAN_POINT($,(59.5315710160817,-3.29731454813055E-015,68.));
#500=CARTESIAN_POINT('Origin',(42.0951775601599,42.0951775601599,68.));
#501=CARTESIAN_POINT($,(42.0951775601599,42.0951775601599,68.));
#502=CARTESIAN_POINT('Origin',(-1.10183055114898E-015,59.5315710160817,
68.));
#503=CARTESIAN_POINT('Origin',(0.,0.,78.85));
#504=CARTESIAN_POINT('',(0.,-54.,113.5));
#505=CARTESIAN_POINT('Origin',(0.,0.,113.5));
#506=CARTESIAN_POINT('Origin',(0.,-41.25,0.));
#507=CARTESIAN_POINT('',(0.,-45.,0.));
#508=CARTESIAN_POINT('Origin',(0.,0.,0.));
#509=CARTESIAN_POINT('',(0.,-37.5,0.));
#510=CARTESIAN_POINT('Origin',(0.,0.,0.));
#511=CARTESIAN_POINT('Origin',(0.,0.,22.1));
#512=CARTESIAN_POINT('',(0.,-45.,44.2));
#513=CARTESIAN_POINT('Origin',(0.,0.,44.2));
#514=CARTESIAN_POINT('Origin',(0.,-49.5,44.2));
#515=CARTESIAN_POINT('',(0.,-54.,44.2));
#516=CARTESIAN_POINT('Origin',(0.,0.,44.2));
#517=CARTESIAN_POINT('Origin',(0.,0.,78.85));
#518=CARTESIAN_POINT('Origin',(0.,-48.2315,113.5));
#519=CARTESIAN_POINT('',(0.,-42.463,113.5));
#520=CARTESIAN_POINT('Origin',(0.,0.,113.5));
#521=CARTESIAN_POINT('Origin',(0.,0.,87.));
#522=CARTESIAN_POINT('',(0.,-42.463,60.5));
#523=CARTESIAN_POINT('Origin',(0.,0.,60.5));
#524=CARTESIAN_POINT('Origin',(0.,-39.4815,60.5));
#525=CARTESIAN_POINT('',(0.,-36.5,60.5));
#526=CARTESIAN_POINT('Origin',(0.,0.,60.5));
#527=CARTESIAN_POINT('Origin',(0.,0.,52.35));
#528=CARTESIAN_POINT('',(0.,-36.5,44.2));
#529=CARTESIAN_POINT('Origin',(0.,0.,44.2));
#530=CARTESIAN_POINT('Origin',(0.,-37.,44.2));
#531=CARTESIAN_POINT('',(0.,-37.5,44.2));
#532=CARTESIAN_POINT('Origin',(0.,0.,44.2));
#533=CARTESIAN_POINT('Origin',(0.,0.,22.1));
#534=UNCERTAINTY_MEASURE_WITH_UNIT(LENGTH_MEASURE(0.01),#536,
'DISTANCE_ACCURACY_VALUE',
'Maximum model space distance between geometric entities at asserted c
onnectivities');
#535=(
GEOMETRIC_REPRESENTATION_CONTEXT(3)
GLOBAL_UNCERTAINTY_ASSIGNED_CONTEXT((#534))
GLOBAL_UNIT_ASSIGNED_CONTEXT((#536,#539,#537))
REPRESENTATION_CONTEXT('','3D')
);
#536=(
LENGTH_UNIT()
NAMED_UNIT(*)
SI_UNIT(.MILLI.,.METRE.)
);
#537=(
NAMED_UNIT(*)
SI_UNIT($,.STERADIAN.)
SOLID_ANGLE_UNIT()
);
#538=DIMENSIONAL_EXPONENTS(0.,0.,0.,0.,0.,0.,0.);
#539=(
CONVERSION_BASED_UNIT('degree',#541)
NAMED_UNIT(#538)
PLANE_ANGLE_UNIT()
);
#540=(
NAMED_UNIT(*)
PLANE_ANGLE_UNIT()
SI_UNIT($,.RADIAN.)
);
#541=PLANE_ANGLE_MEASURE_WITH_UNIT(PLANE_ANGLE_MEASURE(0.01745329252),#540);
#542=SHAPE_DEFINITION_REPRESENTATION(#543,#544);
#543=PRODUCT_DEFINITION_SHAPE('',$,#546);
#544=SHAPE_REPRESENTATION('',(#322),#535);
#545=PRODUCT_DEFINITION_CONTEXT('3D Mechanical Parts',#549,'design');
#546=PRODUCT_DEFINITION('DIFV090075300','DIFV090075300',#547,#545);
#547=PRODUCT_DEFINITION_FORMATION('',$,#551);
#548=APPLICATION_PROTOCOL_DEFINITION('international standard',
'automotive_design',2009,#549);
#549=APPLICATION_CONTEXT(
'Core Data for Automotive Mechanical Design Process');
#550=PRODUCT_CONTEXT('3D Mechanical Parts',#549,'mechanical');
#551=PRODUCT('DIFV090075300','DIFV090075300',$,(#550));
#552=PRESENTATION_STYLE_ASSIGNMENT((#554));
#553=PRESENTATION_STYLE_ASSIGNMENT((#555));
#554=SURFACE_STYLE_USAGE(.BOTH.,#556);
#555=SURFACE_STYLE_USAGE(.BOTH.,#557);
#556=SURFACE_SIDE_STYLE($,(#558));
#557=SURFACE_SIDE_STYLE($,(#559));
#558=SURFACE_STYLE_FILL_AREA(#560);
#559=SURFACE_STYLE_FILL_AREA(#561);
#560=FILL_AREA_STYLE($,(#562));
#561=FILL_AREA_STYLE($,(#563));
#562=FILL_AREA_STYLE_COLOUR($,#564);
#563=FILL_AREA_STYLE_COLOUR($,#565);
#564=COLOUR_RGB('',0.509803921568627,0.509803921568627,0.588235294117647);
#565=COLOUR_RGB('',1.,0.,0.);
ENDSEC;
END-ISO-10303-21;
