ISO-10303-21;
HEADER;
/* Generated by software containing ST-Developer
 * from STEP Tools, Inc. (www.steptools.com) 
 */

FILE_DESCRIPTION(
/* description */ (''),
/* implementation_level */ '2;1');

FILE_NAME(
/* name */ 'C:\\Users\\Gabriele\\Desktop\\catalogo\\BE30\\BE300250.stp',

/* time_stamp */ '2016-10-17T14:43:42+02:00',
/* author */ ('Gabriele'),
/* organization */ (''),
/* preprocessor_version */ 'ST-DEVELOPER v16.5',
/* originating_system */ 'Autodesk Inventor 2017',
/* authorisation */ '');

FILE_SCHEMA (('AUTOMOTIVE_DESIGN { 1 0 10303 214 3 1 1 }'));
ENDSEC;

DATA;
#10=MECHANICAL_DESIGN_GEOMETRIC_PRESENTATION_REPRESENTATION('',(#13),#507);
#11=SHAPE_REPRESENTATION_RELATIONSHIP('SRR','None',#516,#12);
#12=ADVANCED_BREP_SHAPE_REPRESENTATION('',(#14),#506);
#13=STYLED_ITEM('',(#525),#14);
#14=MANIFOLD_SOLID_BREP('Solido1',#213);
#15=B_SPLINE_CURVE_WITH_KNOTS('',3,(#330,#331,#332,#333,#334,#335,#336,
#337,#338,#339,#340,#341,#342,#343,#344,#345,#346,#347,#348,#349,#350,#351,
#352,#353,#354,#355,#356,#357,#358,#359,#360,#361,#362,#363,#364,#365,#366,
#367,#368,#369,#370,#371,#372,#373,#374,#375,#376,#377,#378,#379,#380,#381,
#382,#383,#384,#385,#386,#387,#388,#389,#390,#391,#392,#393,#394,#395),
 .UNSPECIFIED.,.T.,.F.,(4,2,2,2,2,2,2,2,2,2,2,2,2,2,2,2,2,2,2,2,2,2,2,2,
2,2,2,2,2,2,2,2,4),(0.,0.305435224221681,0.610870448443362,0.916323359382989,
1.22177627032262,1.52725751712325,1.83273876392389,2.13825917904325,2.44377959416261,
2.74931939924975,3.05485920433689,3.3603897531009,3.66592030186491,3.97140124534836,
4.27688218883181,4.58229579659954,4.88770940436727,5.19312301213501,5.49853661990274,
5.80401756338619,6.10949850686964,6.41502905563365,6.72055960439766,7.0260994094848,
7.33163921457194,7.6371596296913,7.94268004481066,8.24816129161129,8.55364253841193,
8.85909544935156,9.16454836029119,9.46998358451287,9.77541880873455),
 .UNSPECIFIED.);
#16=B_SPLINE_CURVE_WITH_KNOTS('',3,(#406,#407,#408,#409,#410,#411,#412,
#413,#414,#415,#416,#417,#418,#419,#420,#421,#422,#423,#424,#425,#426,#427,
#428,#429,#430,#431,#432,#433,#434,#435,#436,#437,#438,#439,#440,#441,#442,
#443,#444,#445,#446,#447,#448,#449,#450,#451,#452,#453,#454,#455,#456,#457,
#458,#459,#460,#461,#462,#463,#464,#465,#466,#467,#468,#469,#470,#471),
 .UNSPECIFIED.,.T.,.F.,(4,2,2,2,2,2,2,2,2,2,2,2,2,2,2,2,2,2,2,2,2,2,2,2,
2,2,2,2,2,2,2,2,4),(0.,0.305435224221681,0.610870448443363,0.91632335938299,
1.22177627032262,1.52725751712325,1.83273876392389,2.13825917904325,2.44377959416261,
2.74931939924975,3.05485920433689,3.3603897531009,3.66592030186491,3.97140124534836,
4.27688218883181,4.58229579659954,4.88770940436727,5.19312301213501,5.49853661990274,
5.80401756338619,6.10949850686964,6.41502905563365,6.72055960439766,7.0260994094848,
7.33163921457194,7.6371596296913,7.94268004481065,8.24816129161129,8.55364253841193,
8.85909544935156,9.16454836029119,9.46998358451287,9.77541880873455),
 .UNSPECIFIED.);
#17=PLANE('',#220);
#18=PLANE('',#226);
#19=PLANE('',#230);
#20=PLANE('',#237);
#21=PLANE('',#246);
#22=PLANE('',#247);
#23=CYLINDRICAL_SURFACE('',#218,17.5);
#24=CYLINDRICAL_SURFACE('',#224,17.5);
#25=CYLINDRICAL_SURFACE('',#232,12.5);
#26=CYLINDRICAL_SURFACE('',#239,12.5);
#27=FACE_BOUND('',#64,.T.);
#28=FACE_BOUND('',#66,.T.);
#29=FACE_BOUND('',#68,.T.);
#30=FACE_BOUND('',#70,.T.);
#31=FACE_BOUND('',#72,.T.);
#32=FACE_BOUND('',#74,.T.);
#33=FACE_BOUND('',#76,.T.);
#34=FACE_BOUND('',#78,.T.);
#35=FACE_BOUND('',#80,.T.);
#36=FACE_BOUND('',#82,.T.);
#37=FACE_BOUND('',#84,.T.);
#38=FACE_BOUND('',#86,.T.);
#39=FACE_BOUND('',#88,.T.);
#40=FACE_BOUND('',#90,.T.);
#41=FACE_BOUND('',#92,.T.);
#42=FACE_BOUND('',#94,.T.);
#43=FACE_BOUND('',#96,.T.);
#44=FACE_BOUND('',#98,.T.);
#45=FACE_OUTER_BOUND('',#63,.T.);
#46=FACE_OUTER_BOUND('',#65,.T.);
#47=FACE_OUTER_BOUND('',#67,.T.);
#48=FACE_OUTER_BOUND('',#69,.T.);
#49=FACE_OUTER_BOUND('',#71,.T.);
#50=FACE_OUTER_BOUND('',#73,.T.);
#51=FACE_OUTER_BOUND('',#75,.T.);
#52=FACE_OUTER_BOUND('',#77,.T.);
#53=FACE_OUTER_BOUND('',#79,.T.);
#54=FACE_OUTER_BOUND('',#81,.T.);
#55=FACE_OUTER_BOUND('',#83,.T.);
#56=FACE_OUTER_BOUND('',#85,.T.);
#57=FACE_OUTER_BOUND('',#87,.T.);
#58=FACE_OUTER_BOUND('',#89,.T.);
#59=FACE_OUTER_BOUND('',#91,.T.);
#60=FACE_OUTER_BOUND('',#93,.T.);
#61=FACE_OUTER_BOUND('',#95,.T.);
#62=FACE_OUTER_BOUND('',#97,.T.);
#63=EDGE_LOOP('',(#151));
#64=EDGE_LOOP('',(#152));
#65=EDGE_LOOP('',(#153));
#66=EDGE_LOOP('',(#154));
#67=EDGE_LOOP('',(#155));
#68=EDGE_LOOP('',(#156));
#69=EDGE_LOOP('',(#157));
#70=EDGE_LOOP('',(#158));
#71=EDGE_LOOP('',(#159));
#72=EDGE_LOOP('',(#160));
#73=EDGE_LOOP('',(#161));
#74=EDGE_LOOP('',(#162));
#75=EDGE_LOOP('',(#163));
#76=EDGE_LOOP('',(#164));
#77=EDGE_LOOP('',(#165));
#78=EDGE_LOOP('',(#166));
#79=EDGE_LOOP('',(#167));
#80=EDGE_LOOP('',(#168));
#81=EDGE_LOOP('',(#169));
#82=EDGE_LOOP('',(#170));
#83=EDGE_LOOP('',(#171));
#84=EDGE_LOOP('',(#172));
#85=EDGE_LOOP('',(#173));
#86=EDGE_LOOP('',(#174));
#87=EDGE_LOOP('',(#175));
#88=EDGE_LOOP('',(#176));
#89=EDGE_LOOP('',(#177));
#90=EDGE_LOOP('',(#178));
#91=EDGE_LOOP('',(#179));
#92=EDGE_LOOP('',(#180));
#93=EDGE_LOOP('',(#181));
#94=EDGE_LOOP('',(#182));
#95=EDGE_LOOP('',(#183));
#96=EDGE_LOOP('',(#184));
#97=EDGE_LOOP('',(#185));
#98=EDGE_LOOP('',(#186));
#99=CIRCLE('',#216,17.5);
#100=CIRCLE('',#217,17.);
#101=CIRCLE('',#219,17.5);
#102=CIRCLE('',#222,17.);
#103=CIRCLE('',#223,17.5);
#104=CIRCLE('',#225,17.5);
#105=CIRCLE('',#228,12.5);
#106=CIRCLE('',#229,13.);
#107=CIRCLE('',#231,17.);
#108=CIRCLE('',#233,12.5);
#109=CIRCLE('',#235,12.5);
#110=CIRCLE('',#236,13.);
#111=CIRCLE('',#238,17.);
#112=CIRCLE('',#240,12.5);
#113=CIRCLE('',#244,11.5);
#114=CIRCLE('',#245,11.5);
#115=VERTEX_POINT('',#321);
#116=VERTEX_POINT('',#323);
#117=VERTEX_POINT('',#326);
#118=VERTEX_POINT('',#329);
#119=VERTEX_POINT('',#397);
#120=VERTEX_POINT('',#399);
#121=VERTEX_POINT('',#402);
#122=VERTEX_POINT('',#405);
#123=VERTEX_POINT('',#473);
#124=VERTEX_POINT('',#475);
#125=VERTEX_POINT('',#478);
#126=VERTEX_POINT('',#481);
#127=VERTEX_POINT('',#484);
#128=VERTEX_POINT('',#486);
#129=VERTEX_POINT('',#489);
#130=VERTEX_POINT('',#492);
#131=VERTEX_POINT('',#497);
#132=VERTEX_POINT('',#499);
#133=EDGE_CURVE('',#115,#115,#99,.T.);
#134=EDGE_CURVE('',#116,#116,#100,.T.);
#135=EDGE_CURVE('',#117,#117,#101,.T.);
#136=EDGE_CURVE('',#118,#118,#15,.T.);
#137=EDGE_CURVE('',#119,#119,#102,.T.);
#138=EDGE_CURVE('',#120,#120,#103,.T.);
#139=EDGE_CURVE('',#121,#121,#104,.T.);
#140=EDGE_CURVE('',#122,#122,#16,.T.);
#141=EDGE_CURVE('',#123,#123,#105,.T.);
#142=EDGE_CURVE('',#124,#124,#106,.T.);
#143=EDGE_CURVE('',#125,#125,#107,.T.);
#144=EDGE_CURVE('',#126,#126,#108,.T.);
#145=EDGE_CURVE('',#127,#127,#109,.T.);
#146=EDGE_CURVE('',#128,#128,#110,.T.);
#147=EDGE_CURVE('',#129,#129,#111,.T.);
#148=EDGE_CURVE('',#130,#130,#112,.T.);
#149=EDGE_CURVE('',#131,#131,#113,.T.);
#150=EDGE_CURVE('',#132,#132,#114,.T.);
#151=ORIENTED_EDGE('',*,*,#133,.T.);
#152=ORIENTED_EDGE('',*,*,#134,.T.);
#153=ORIENTED_EDGE('',*,*,#135,.F.);
#154=ORIENTED_EDGE('',*,*,#133,.F.);
#155=ORIENTED_EDGE('',*,*,#134,.F.);
#156=ORIENTED_EDGE('',*,*,#136,.F.);
#157=ORIENTED_EDGE('',*,*,#137,.T.);
#158=ORIENTED_EDGE('',*,*,#138,.T.);
#159=ORIENTED_EDGE('',*,*,#139,.F.);
#160=ORIENTED_EDGE('',*,*,#138,.F.);
#161=ORIENTED_EDGE('',*,*,#137,.F.);
#162=ORIENTED_EDGE('',*,*,#140,.F.);
#163=ORIENTED_EDGE('',*,*,#141,.T.);
#164=ORIENTED_EDGE('',*,*,#142,.T.);
#165=ORIENTED_EDGE('',*,*,#143,.F.);
#166=ORIENTED_EDGE('',*,*,#142,.F.);
#167=ORIENTED_EDGE('',*,*,#144,.F.);
#168=ORIENTED_EDGE('',*,*,#141,.F.);
#169=ORIENTED_EDGE('',*,*,#145,.T.);
#170=ORIENTED_EDGE('',*,*,#146,.T.);
#171=ORIENTED_EDGE('',*,*,#147,.F.);
#172=ORIENTED_EDGE('',*,*,#146,.F.);
#173=ORIENTED_EDGE('',*,*,#148,.T.);
#174=ORIENTED_EDGE('',*,*,#145,.F.);
#175=ORIENTED_EDGE('',*,*,#147,.T.);
#176=ORIENTED_EDGE('',*,*,#135,.T.);
#177=ORIENTED_EDGE('',*,*,#139,.T.);
#178=ORIENTED_EDGE('',*,*,#143,.T.);
#179=ORIENTED_EDGE('',*,*,#149,.F.);
#180=ORIENTED_EDGE('',*,*,#150,.F.);
#181=ORIENTED_EDGE('',*,*,#144,.T.);
#182=ORIENTED_EDGE('',*,*,#150,.T.);
#183=ORIENTED_EDGE('',*,*,#148,.F.);
#184=ORIENTED_EDGE('',*,*,#149,.T.);
#185=ORIENTED_EDGE('',*,*,#140,.T.);
#186=ORIENTED_EDGE('',*,*,#136,.T.);
#187=TOROIDAL_SURFACE('',#215,17.,0.5);
#188=TOROIDAL_SURFACE('',#221,17.,0.5);
#189=TOROIDAL_SURFACE('',#227,13.,0.5);
#190=TOROIDAL_SURFACE('',#234,13.,0.5);
#191=TOROIDAL_SURFACE('',#241,17.,0.5);
#192=TOROIDAL_SURFACE('',#242,17.,0.5);
#193=TOROIDAL_SURFACE('',#243,50.,11.5);
#194=TOROIDAL_SURFACE('',#248,50.,16.5);
#195=ADVANCED_FACE('',(#45,#27),#187,.T.);
#196=ADVANCED_FACE('',(#46,#28),#23,.T.);
#197=ADVANCED_FACE('',(#47,#29),#17,.T.);
#198=ADVANCED_FACE('',(#48,#30),#188,.T.);
#199=ADVANCED_FACE('',(#49,#31),#24,.T.);
#200=ADVANCED_FACE('',(#50,#32),#18,.F.);
#201=ADVANCED_FACE('',(#51,#33),#189,.T.);
#202=ADVANCED_FACE('',(#52,#34),#19,.T.);
#203=ADVANCED_FACE('',(#53,#35),#25,.F.);
#204=ADVANCED_FACE('',(#54,#36),#190,.T.);
#205=ADVANCED_FACE('',(#55,#37),#20,.F.);
#206=ADVANCED_FACE('',(#56,#38),#26,.F.);
#207=ADVANCED_FACE('',(#57,#39),#191,.T.);
#208=ADVANCED_FACE('',(#58,#40),#192,.T.);
#209=ADVANCED_FACE('',(#59,#41),#193,.F.);
#210=ADVANCED_FACE('',(#60,#42),#21,.T.);
#211=ADVANCED_FACE('',(#61,#43),#22,.F.);
#212=ADVANCED_FACE('',(#62,#44),#194,.T.);
#213=CLOSED_SHELL('',(#195,#196,#197,#198,#199,#200,#201,#202,#203,#204,
#205,#206,#207,#208,#209,#210,#211,#212));
#214=AXIS2_PLACEMENT_3D('placement',#319,#249,#250);
#215=AXIS2_PLACEMENT_3D('',#320,#251,#252);
#216=AXIS2_PLACEMENT_3D('',#322,#253,#254);
#217=AXIS2_PLACEMENT_3D('',#324,#255,#256);
#218=AXIS2_PLACEMENT_3D('',#325,#257,#258);
#219=AXIS2_PLACEMENT_3D('',#327,#259,#260);
#220=AXIS2_PLACEMENT_3D('',#328,#261,#262);
#221=AXIS2_PLACEMENT_3D('',#396,#263,#264);
#222=AXIS2_PLACEMENT_3D('',#398,#265,#266);
#223=AXIS2_PLACEMENT_3D('',#400,#267,#268);
#224=AXIS2_PLACEMENT_3D('',#401,#269,#270);
#225=AXIS2_PLACEMENT_3D('',#403,#271,#272);
#226=AXIS2_PLACEMENT_3D('',#404,#273,#274);
#227=AXIS2_PLACEMENT_3D('',#472,#275,#276);
#228=AXIS2_PLACEMENT_3D('',#474,#277,#278);
#229=AXIS2_PLACEMENT_3D('',#476,#279,#280);
#230=AXIS2_PLACEMENT_3D('',#477,#281,#282);
#231=AXIS2_PLACEMENT_3D('',#479,#283,#284);
#232=AXIS2_PLACEMENT_3D('',#480,#285,#286);
#233=AXIS2_PLACEMENT_3D('',#482,#287,#288);
#234=AXIS2_PLACEMENT_3D('',#483,#289,#290);
#235=AXIS2_PLACEMENT_3D('',#485,#291,#292);
#236=AXIS2_PLACEMENT_3D('',#487,#293,#294);
#237=AXIS2_PLACEMENT_3D('',#488,#295,#296);
#238=AXIS2_PLACEMENT_3D('',#490,#297,#298);
#239=AXIS2_PLACEMENT_3D('',#491,#299,#300);
#240=AXIS2_PLACEMENT_3D('',#493,#301,#302);
#241=AXIS2_PLACEMENT_3D('',#494,#303,#304);
#242=AXIS2_PLACEMENT_3D('',#495,#305,#306);
#243=AXIS2_PLACEMENT_3D('',#496,#307,#308);
#244=AXIS2_PLACEMENT_3D('',#498,#309,#310);
#245=AXIS2_PLACEMENT_3D('',#500,#311,#312);
#246=AXIS2_PLACEMENT_3D('',#501,#313,#314);
#247=AXIS2_PLACEMENT_3D('',#502,#315,#316);
#248=AXIS2_PLACEMENT_3D('',#503,#317,#318);
#249=DIRECTION('axis',(0.,0.,1.));
#250=DIRECTION('refdir',(1.,0.,0.));
#251=DIRECTION('center_axis',(0.,0.,1.));
#252=DIRECTION('ref_axis',(1.,0.,0.));
#253=DIRECTION('center_axis',(0.,0.,1.));
#254=DIRECTION('ref_axis',(1.,0.,0.));
#255=DIRECTION('center_axis',(0.,0.,-1.));
#256=DIRECTION('ref_axis',(1.,0.,0.));
#257=DIRECTION('center_axis',(0.,0.,1.));
#258=DIRECTION('ref_axis',(1.,0.,0.));
#259=DIRECTION('center_axis',(0.,0.,-1.));
#260=DIRECTION('ref_axis',(1.,0.,0.));
#261=DIRECTION('center_axis',(0.,0.,1.));
#262=DIRECTION('ref_axis',(1.,0.,0.));
#263=DIRECTION('center_axis',(-1.,0.,-2.22044604925031E-16));
#264=DIRECTION('ref_axis',(-4.06024420434343E-16,0.,1.));
#265=DIRECTION('center_axis',(-1.,0.,-2.22044604925031E-16));
#266=DIRECTION('ref_axis',(-2.22044604925031E-16,0.,1.));
#267=DIRECTION('center_axis',(1.,0.,2.22044604925031E-16));
#268=DIRECTION('ref_axis',(-2.22044604925031E-16,0.,1.));
#269=DIRECTION('center_axis',(-1.,0.,-2.22044604925031E-16));
#270=DIRECTION('ref_axis',(-2.22044604925031E-16,0.,1.));
#271=DIRECTION('center_axis',(-1.,0.,6.12323399573677E-17));
#272=DIRECTION('ref_axis',(5.9476233462062E-17,0.,1.));
#273=DIRECTION('center_axis',(-1.,0.,-2.22044604925031E-16));
#274=DIRECTION('ref_axis',(0.,0.,1.));
#275=DIRECTION('center_axis',(1.,0.,-6.12323399573677E-17));
#276=DIRECTION('ref_axis',(0.,0.,-1.));
#277=DIRECTION('center_axis',(1.,0.,-6.12323399573677E-17));
#278=DIRECTION('ref_axis',(6.10622663543837E-17,0.,1.));
#279=DIRECTION('center_axis',(-1.,0.,6.12323399573677E-17));
#280=DIRECTION('ref_axis',(6.12323399573677E-17,0.,1.));
#281=DIRECTION('center_axis',(-1.,0.,6.12323399573677E-17));
#282=DIRECTION('ref_axis',(0.,0.,1.));
#283=DIRECTION('center_axis',(1.,0.,-6.12323399573677E-17));
#284=DIRECTION('ref_axis',(6.12323399573677E-17,0.,1.));
#285=DIRECTION('center_axis',(-1.,0.,-2.22044604925031E-16));
#286=DIRECTION('ref_axis',(-2.22044604925031E-16,0.,1.));
#287=DIRECTION('center_axis',(-1.,0.,-2.22044604925031E-16));
#288=DIRECTION('ref_axis',(-2.22044604925031E-16,0.,1.));
#289=DIRECTION('center_axis',(0.,0.,1.));
#290=DIRECTION('ref_axis',(1.,0.,0.));
#291=DIRECTION('center_axis',(0.,0.,1.));
#292=DIRECTION('ref_axis',(1.,0.,0.));
#293=DIRECTION('center_axis',(0.,0.,-1.));
#294=DIRECTION('ref_axis',(1.,0.,0.));
#295=DIRECTION('center_axis',(0.,0.,1.));
#296=DIRECTION('ref_axis',(1.,0.,0.));
#297=DIRECTION('center_axis',(0.,0.,1.));
#298=DIRECTION('ref_axis',(1.,0.,0.));
#299=DIRECTION('center_axis',(0.,0.,1.));
#300=DIRECTION('ref_axis',(1.,0.,0.));
#301=DIRECTION('center_axis',(0.,0.,1.));
#302=DIRECTION('ref_axis',(1.,0.,0.));
#303=DIRECTION('center_axis',(0.,0.,1.));
#304=DIRECTION('ref_axis',(1.,0.,0.));
#305=DIRECTION('center_axis',(-1.,0.,6.12323399573677E-17));
#306=DIRECTION('ref_axis',(0.,0.,1.));
#307=DIRECTION('center_axis',(0.,1.,0.));
#308=DIRECTION('ref_axis',(0.,0.,1.));
#309=DIRECTION('center_axis',(0.,0.,1.));
#310=DIRECTION('ref_axis',(-1.,0.,0.));
#311=DIRECTION('center_axis',(1.,0.,2.22044604925031E-16));
#312=DIRECTION('ref_axis',(-2.22044604925031E-16,0.,1.));
#313=DIRECTION('center_axis',(-1.,0.,-2.22044604925031E-16));
#314=DIRECTION('ref_axis',(0.,0.,1.));
#315=DIRECTION('center_axis',(0.,0.,1.));
#316=DIRECTION('ref_axis',(1.,0.,0.));
#317=DIRECTION('center_axis',(0.,-1.,0.));
#318=DIRECTION('ref_axis',(0.,0.,-1.));
#319=CARTESIAN_POINT('',(0.,0.,0.));
#320=CARTESIAN_POINT('Origin',(0.,0.,19.5));
#321=CARTESIAN_POINT('',(-17.5,-2.14313189850787E-15,19.5));
#322=CARTESIAN_POINT('Origin',(0.,0.,19.5));
#323=CARTESIAN_POINT('',(-17.,2.0818995585505E-15,20.));
#324=CARTESIAN_POINT('Origin',(0.,0.,20.));
#325=CARTESIAN_POINT('Origin',(0.,0.,0.));
#326=CARTESIAN_POINT('',(-17.5,2.14313189850787E-15,0.5));
#327=CARTESIAN_POINT('Origin',(0.,0.,0.5));
#328=CARTESIAN_POINT('Origin',(1.87036274335208E-15,4.22942104619107E-16,
20.));
#329=CARTESIAN_POINT('',(16.4924807779045,-2.77555756156289E-16,20.));
#330=CARTESIAN_POINT('Ctrl Pts',(16.4924807779045,-2.77555756156289E-16,
20.));
#331=CARTESIAN_POINT('Ctrl Pts',(16.4924807779045,1.01811741407227,20.));
#332=CARTESIAN_POINT('Ctrl Pts',(16.3920236595148,2.13003231557659,20.));
#333=CARTESIAN_POINT('Ctrl Pts',(15.9588379079858,4.30765772309927,20.));
#334=CARTESIAN_POINT('Ctrl Pts',(15.6261094654541,5.37336826703437,20.));
#335=CARTESIAN_POINT('Ctrl Pts',(14.846812343346,7.25464133857551,20.));
#336=CARTESIAN_POINT('Ctrl Pts',(14.3284373453086,8.24351829246768,20.));
#337=CARTESIAN_POINT('Ctrl Pts',(13.0947726347108,10.0896894630954,20.));
#338=CARTESIAN_POINT('Ctrl Pts',(12.3794834012098,10.946983999952,20.));
#339=CARTESIAN_POINT('Ctrl Pts',(10.9394456306011,12.3869174660988,20.));
#340=CARTESIAN_POINT('Ctrl Pts',(10.0820143408846,13.1022029672026,20.));
#341=CARTESIAN_POINT('Ctrl Pts',(8.2355763582434,14.3358428992007,20.));
#342=CARTESIAN_POINT('Ctrl Pts',(7.24657016859022,14.8541980833613,20.));
#343=CARTESIAN_POINT('Ctrl Pts',(5.36490749965212,15.6335434988524,20.));
#344=CARTESIAN_POINT('Ctrl Pts',(4.29888312247394,15.9663110428084,20.));
#345=CARTESIAN_POINT('Ctrl Pts',(2.12062946460976,16.3995387915731,20.));
#346=CARTESIAN_POINT('Ctrl Pts',(1.00840038353114,16.5,20.));
#347=CARTESIAN_POINT('Ctrl Pts',(-1.02846701715719,16.5,20.));
#348=CARTESIAN_POINT('Ctrl Pts',(-2.14076536129748,16.3995259874004,20.));
#349=CARTESIAN_POINT('Ctrl Pts',(-4.31916128919518,15.9662754264004,20.));
#350=CARTESIAN_POINT('Ctrl Pts',(-5.38525898012012,15.6334994168414,20.));
#351=CARTESIAN_POINT('Ctrl Pts',(-7.26715701235863,14.8541238903326,20.));
#352=CARTESIAN_POINT('Ctrl Pts',(-8.25634408255709,14.3357241910654,20.));
#353=CARTESIAN_POINT('Ctrl Pts',(-10.1031504966294,13.1019825759125,20.));
#354=CARTESIAN_POINT('Ctrl Pts',(-10.9607693111865,12.3866398676845,20.));
#355=CARTESIAN_POINT('Ctrl Pts',(-12.401097881518,10.9466326589361,20.));
#356=CARTESIAN_POINT('Ctrl Pts',(-13.1165298663812,10.0893220283314,20.));
#357=CARTESIAN_POINT('Ctrl Pts',(-14.3504732109774,8.24309258580986,20.));
#358=CARTESIAN_POINT('Ctrl Pts',(-14.8689823066939,7.25417226071911,20.));
#359=CARTESIAN_POINT('Ctrl Pts',(-15.6484197514164,5.37293417245213,20.));
#360=CARTESIAN_POINT('Ctrl Pts',(-15.9811959714903,4.30732125828603,20.));
#361=CARTESIAN_POINT('Ctrl Pts',(-16.4144513136098,2.12987702439842,20.));
#362=CARTESIAN_POINT('Ctrl Pts',(-16.5149286994936,1.01804535922577,20.));
#363=CARTESIAN_POINT('Ctrl Pts',(-16.5149286994936,-1.01804535922577,20.));
#364=CARTESIAN_POINT('Ctrl Pts',(-16.4144513136098,-2.12987702439841,20.));
#365=CARTESIAN_POINT('Ctrl Pts',(-15.9811959714903,-4.30732125828602,20.));
#366=CARTESIAN_POINT('Ctrl Pts',(-15.6484197514164,-5.37293417245213,20.));
#367=CARTESIAN_POINT('Ctrl Pts',(-14.8689823066939,-7.25417226071911,20.));
#368=CARTESIAN_POINT('Ctrl Pts',(-14.3504732109774,-8.24309258580986,20.));
#369=CARTESIAN_POINT('Ctrl Pts',(-13.1165298663812,-10.0893220283314,20.));
#370=CARTESIAN_POINT('Ctrl Pts',(-12.401097881518,-10.9466326589361,20.));
#371=CARTESIAN_POINT('Ctrl Pts',(-10.9607693111865,-12.3866398676845,20.));
#372=CARTESIAN_POINT('Ctrl Pts',(-10.1031504966294,-13.1019825759125,20.));
#373=CARTESIAN_POINT('Ctrl Pts',(-8.25634408255708,-14.3357241910654,20.));
#374=CARTESIAN_POINT('Ctrl Pts',(-7.26715701235863,-14.8541238903326,20.));
#375=CARTESIAN_POINT('Ctrl Pts',(-5.38525898012012,-15.6334994168414,20.));
#376=CARTESIAN_POINT('Ctrl Pts',(-4.31916128919518,-15.9662754264004,20.));
#377=CARTESIAN_POINT('Ctrl Pts',(-2.14076536129747,-16.3995259874004,20.));
#378=CARTESIAN_POINT('Ctrl Pts',(-1.02846701715719,-16.5,20.));
#379=CARTESIAN_POINT('Ctrl Pts',(1.00840038353114,-16.5,20.));
#380=CARTESIAN_POINT('Ctrl Pts',(2.12062946460976,-16.3995387915731,20.));
#381=CARTESIAN_POINT('Ctrl Pts',(4.29888312247394,-15.9663110428084,20.));
#382=CARTESIAN_POINT('Ctrl Pts',(5.36490749965212,-15.6335434988524,20.));
#383=CARTESIAN_POINT('Ctrl Pts',(7.24657016859022,-14.8541980833613,20.));
#384=CARTESIAN_POINT('Ctrl Pts',(8.2355763582434,-14.3358428992007,20.));
#385=CARTESIAN_POINT('Ctrl Pts',(10.0820143408846,-13.1022029672026,20.));
#386=CARTESIAN_POINT('Ctrl Pts',(10.9394456306011,-12.3869174660988,20.));
#387=CARTESIAN_POINT('Ctrl Pts',(12.3794834012098,-10.946983999952,20.));
#388=CARTESIAN_POINT('Ctrl Pts',(13.0947726347108,-10.0896894630954,20.));
#389=CARTESIAN_POINT('Ctrl Pts',(14.3284373453085,-8.24351829246769,20.));
#390=CARTESIAN_POINT('Ctrl Pts',(14.846812343346,-7.25464133857552,20.));
#391=CARTESIAN_POINT('Ctrl Pts',(15.6261094654541,-5.37336826703438,20.));
#392=CARTESIAN_POINT('Ctrl Pts',(15.9588379079858,-4.30765772309927,20.));
#393=CARTESIAN_POINT('Ctrl Pts',(16.3920236595148,-2.13003231557658,20.));
#394=CARTESIAN_POINT('Ctrl Pts',(16.4924807779045,-1.01811741407227,20.));
#395=CARTESIAN_POINT('Ctrl Pts',(16.4924807779045,0.,20.));
#396=CARTESIAN_POINT('Origin',(-49.5,0.,69.));
#397=CARTESIAN_POINT('',(-49.,-2.0818995585505E-15,52.));
#398=CARTESIAN_POINT('Origin',(-49.,0.,69.));
#399=CARTESIAN_POINT('',(-49.5,2.14313189850787E-15,51.5));
#400=CARTESIAN_POINT('Origin',(-49.5,0.,69.));
#401=CARTESIAN_POINT('Origin',(-69.,0.,69.));
#402=CARTESIAN_POINT('',(-68.5,-2.14313189850787E-15,51.5));
#403=CARTESIAN_POINT('Origin',(-68.5,0.,69.));
#404=CARTESIAN_POINT('Origin',(-49.,4.22942104619107E-16,69.));
#405=CARTESIAN_POINT('',(-49.,-5.55111512312578E-16,85.4924807779045));
#406=CARTESIAN_POINT('Ctrl Pts',(-49.,-5.55111512312578E-16,85.4924807779045));
#407=CARTESIAN_POINT('Ctrl Pts',(-49.,-1.01811741407227,85.4924807779045));
#408=CARTESIAN_POINT('Ctrl Pts',(-49.,-2.13003231557659,85.3920236595148));
#409=CARTESIAN_POINT('Ctrl Pts',(-49.,-4.30765772309927,84.9588379079859));
#410=CARTESIAN_POINT('Ctrl Pts',(-49.,-5.37336826703438,84.626109465454));
#411=CARTESIAN_POINT('Ctrl Pts',(-49.,-7.25464133857552,83.846812343346));
#412=CARTESIAN_POINT('Ctrl Pts',(-49.,-8.24351829246769,83.3284373453086));
#413=CARTESIAN_POINT('Ctrl Pts',(-49.,-10.0896894630954,82.0947726347108));
#414=CARTESIAN_POINT('Ctrl Pts',(-49.,-10.946983999952,81.3794834012098));
#415=CARTESIAN_POINT('Ctrl Pts',(-49.,-12.3869174660988,79.9394456306011));
#416=CARTESIAN_POINT('Ctrl Pts',(-49.,-13.1022029672026,79.0820143408846));
#417=CARTESIAN_POINT('Ctrl Pts',(-49.,-14.3358428992007,77.2355763582434));
#418=CARTESIAN_POINT('Ctrl Pts',(-49.,-14.8541980833613,76.2465701685902));
#419=CARTESIAN_POINT('Ctrl Pts',(-49.,-15.6335434988524,74.3649074996521));
#420=CARTESIAN_POINT('Ctrl Pts',(-49.,-15.9663110428084,73.298883122474));
#421=CARTESIAN_POINT('Ctrl Pts',(-49.,-16.3995387915731,71.1206294646098));
#422=CARTESIAN_POINT('Ctrl Pts',(-49.,-16.5,70.0084003835312));
#423=CARTESIAN_POINT('Ctrl Pts',(-49.,-16.5,67.9715329828428));
#424=CARTESIAN_POINT('Ctrl Pts',(-49.,-16.3995259874004,66.8592346387025));
#425=CARTESIAN_POINT('Ctrl Pts',(-49.,-15.9662754264004,64.6808387108048));
#426=CARTESIAN_POINT('Ctrl Pts',(-49.,-15.6334994168414,63.6147410198799));
#427=CARTESIAN_POINT('Ctrl Pts',(-49.,-14.8541238903326,61.7328429876414));
#428=CARTESIAN_POINT('Ctrl Pts',(-49.,-14.3357241910654,60.7436559174429));
#429=CARTESIAN_POINT('Ctrl Pts',(-49.,-13.1019825759125,58.8968495033706));
#430=CARTESIAN_POINT('Ctrl Pts',(-49.,-12.3866398676845,58.0392306888135));
#431=CARTESIAN_POINT('Ctrl Pts',(-49.,-10.9466326589361,56.598902118482));
#432=CARTESIAN_POINT('Ctrl Pts',(-49.,-10.0893220283314,55.8834701336188));
#433=CARTESIAN_POINT('Ctrl Pts',(-49.,-8.24309258580986,54.6495267890227));
#434=CARTESIAN_POINT('Ctrl Pts',(-49.,-7.25417226071911,54.1310176933061));
#435=CARTESIAN_POINT('Ctrl Pts',(-49.,-5.37293417245213,53.3515802485836));
#436=CARTESIAN_POINT('Ctrl Pts',(-49.,-4.30732125828602,53.0188040285097));
#437=CARTESIAN_POINT('Ctrl Pts',(-49.,-2.12987702439841,52.5855486863902));
#438=CARTESIAN_POINT('Ctrl Pts',(-49.,-1.01804535922577,52.4850713005064));
#439=CARTESIAN_POINT('Ctrl Pts',(-49.,1.01804535922577,52.4850713005064));
#440=CARTESIAN_POINT('Ctrl Pts',(-49.,2.12987702439842,52.5855486863902));
#441=CARTESIAN_POINT('Ctrl Pts',(-49.,4.30732125828602,53.0188040285097));
#442=CARTESIAN_POINT('Ctrl Pts',(-49.,5.37293417245213,53.3515802485836));
#443=CARTESIAN_POINT('Ctrl Pts',(-49.,7.25417226071911,54.1310176933061));
#444=CARTESIAN_POINT('Ctrl Pts',(-49.,8.24309258580986,54.6495267890226));
#445=CARTESIAN_POINT('Ctrl Pts',(-49.,10.0893220283314,55.8834701336188));
#446=CARTESIAN_POINT('Ctrl Pts',(-49.,10.9466326589361,56.598902118482));
#447=CARTESIAN_POINT('Ctrl Pts',(-49.,12.3866398676845,58.0392306888135));
#448=CARTESIAN_POINT('Ctrl Pts',(-49.,13.1019825759125,58.8968495033706));
#449=CARTESIAN_POINT('Ctrl Pts',(-49.,14.3357241910654,60.7436559174429));
#450=CARTESIAN_POINT('Ctrl Pts',(-49.,14.8541238903326,61.7328429876414));
#451=CARTESIAN_POINT('Ctrl Pts',(-49.,15.6334994168414,63.6147410198799));
#452=CARTESIAN_POINT('Ctrl Pts',(-49.,15.9662754264004,64.6808387108048));
#453=CARTESIAN_POINT('Ctrl Pts',(-49.,16.3995259874004,66.8592346387025));
#454=CARTESIAN_POINT('Ctrl Pts',(-49.,16.5,67.9715329828428));
#455=CARTESIAN_POINT('Ctrl Pts',(-49.,16.5,70.0084003835311));
#456=CARTESIAN_POINT('Ctrl Pts',(-49.,16.3995387915731,71.1206294646097));
#457=CARTESIAN_POINT('Ctrl Pts',(-49.,15.9663110428084,73.2988831224739));
#458=CARTESIAN_POINT('Ctrl Pts',(-49.,15.6335434988524,74.3649074996521));
#459=CARTESIAN_POINT('Ctrl Pts',(-49.,14.8541980833613,76.2465701685902));
#460=CARTESIAN_POINT('Ctrl Pts',(-49.,14.3358428992007,77.2355763582434));
#461=CARTESIAN_POINT('Ctrl Pts',(-49.,13.1022029672026,79.0820143408846));
#462=CARTESIAN_POINT('Ctrl Pts',(-49.,12.3869174660988,79.9394456306011));
#463=CARTESIAN_POINT('Ctrl Pts',(-49.,10.946983999952,81.3794834012098));
#464=CARTESIAN_POINT('Ctrl Pts',(-49.,10.0896894630954,82.0947726347108));
#465=CARTESIAN_POINT('Ctrl Pts',(-49.,8.24351829246767,83.3284373453086));
#466=CARTESIAN_POINT('Ctrl Pts',(-49.,7.25464133857551,83.846812343346));
#467=CARTESIAN_POINT('Ctrl Pts',(-49.,5.37336826703437,84.6261094654541));
#468=CARTESIAN_POINT('Ctrl Pts',(-49.,4.30765772309927,84.9588379079859));
#469=CARTESIAN_POINT('Ctrl Pts',(-49.,2.13003231557658,85.3920236595148));
#470=CARTESIAN_POINT('Ctrl Pts',(-49.,1.01811741407227,85.4924807779045));
#471=CARTESIAN_POINT('Ctrl Pts',(-49.,0.,85.4924807779045));
#472=CARTESIAN_POINT('Origin',(-68.5,0.,69.));
#473=CARTESIAN_POINT('',(-68.5,1.53080849893419E-15,56.5));
#474=CARTESIAN_POINT('Origin',(-68.5,0.,69.));
#475=CARTESIAN_POINT('',(-69.,-1.59204083889156E-15,56.));
#476=CARTESIAN_POINT('Origin',(-69.,0.,69.));
#477=CARTESIAN_POINT('Origin',(-69.,0.,69.));
#478=CARTESIAN_POINT('',(-69.,2.0818995585505E-15,52.));
#479=CARTESIAN_POINT('Origin',(-69.,0.,69.));
#480=CARTESIAN_POINT('Origin',(-69.,0.,69.));
#481=CARTESIAN_POINT('',(-50.,1.53080849893419E-15,56.5));
#482=CARTESIAN_POINT('Origin',(-50.,0.,69.));
#483=CARTESIAN_POINT('Origin',(0.,0.,0.5));
#484=CARTESIAN_POINT('',(-12.5,-1.53080849893419E-15,0.5));
#485=CARTESIAN_POINT('Origin',(0.,0.,0.5));
#486=CARTESIAN_POINT('',(-13.,1.59204083889156E-15,0.));
#487=CARTESIAN_POINT('Origin',(0.,0.,0.));
#488=CARTESIAN_POINT('Origin',(1.68388934882761E-16,0.,0.));
#489=CARTESIAN_POINT('',(-17.,-2.0818995585505E-15,0.));
#490=CARTESIAN_POINT('Origin',(0.,0.,0.));
#491=CARTESIAN_POINT('Origin',(0.,0.,0.));
#492=CARTESIAN_POINT('',(-12.5,1.53080849893419E-15,19.));
#493=CARTESIAN_POINT('Origin',(0.,0.,19.));
#494=CARTESIAN_POINT('Origin',(0.,0.,0.5));
#495=CARTESIAN_POINT('Origin',(-68.5,0.,69.));
#496=CARTESIAN_POINT('Origin',(-50.,0.,19.));
#497=CARTESIAN_POINT('',(11.5,1.40834381901946E-15,19.));
#498=CARTESIAN_POINT('Origin',(-8.88178419700125E-15,0.,19.));
#499=CARTESIAN_POINT('',(-50.,1.40834381901946E-15,80.5));
#500=CARTESIAN_POINT('Origin',(-50.,0.,69.));
#501=CARTESIAN_POINT('Origin',(-50.,0.,69.));
#502=CARTESIAN_POINT('Origin',(7.19686321377933E-16,0.,19.));
#503=CARTESIAN_POINT('Origin',(-50.,0.,19.));
#504=UNCERTAINTY_MEASURE_WITH_UNIT(LENGTH_MEASURE(0.01),#508,
'DISTANCE_ACCURACY_VALUE',
'Maximum model space distance between geometric entities at asserted c
onnectivities');
#505=UNCERTAINTY_MEASURE_WITH_UNIT(LENGTH_MEASURE(1.E-6),#508,
'DISTANCE_ACCURACY_VALUE',
'Maximum model space distance between geometric entities at asserted c
onnectivities');
#506=(
GEOMETRIC_REPRESENTATION_CONTEXT(3)
GLOBAL_UNCERTAINTY_ASSIGNED_CONTEXT((#504))
GLOBAL_UNIT_ASSIGNED_CONTEXT((#508,#511,#509))
REPRESENTATION_CONTEXT('','3D')
);
#507=(
GEOMETRIC_REPRESENTATION_CONTEXT(3)
GLOBAL_UNCERTAINTY_ASSIGNED_CONTEXT((#505))
GLOBAL_UNIT_ASSIGNED_CONTEXT((#508,#511,#509))
REPRESENTATION_CONTEXT('','3D')
);
#508=(
LENGTH_UNIT()
NAMED_UNIT(*)
SI_UNIT(.MILLI.,.METRE.)
);
#509=(
NAMED_UNIT(*)
SI_UNIT($,.STERADIAN.)
SOLID_ANGLE_UNIT()
);
#510=DIMENSIONAL_EXPONENTS(0.,0.,0.,0.,0.,0.,0.);
#511=(
CONVERSION_BASED_UNIT('degree',#513)
NAMED_UNIT(#510)
PLANE_ANGLE_UNIT()
);
#512=(
NAMED_UNIT(*)
PLANE_ANGLE_UNIT()
SI_UNIT($,.RADIAN.)
);
#513=PLANE_ANGLE_MEASURE_WITH_UNIT(PLANE_ANGLE_MEASURE(0.01745329252),#512);
#514=SHAPE_DEFINITION_REPRESENTATION(#515,#516);
#515=PRODUCT_DEFINITION_SHAPE('',$,#518);
#516=SHAPE_REPRESENTATION('',(#214),#506);
#517=PRODUCT_DEFINITION_CONTEXT('part definition',#522,'design');
#518=PRODUCT_DEFINITION('BE300250','BE30',#519,#517);
#519=PRODUCT_DEFINITION_FORMATION('',$,#524);
#520=PRODUCT_RELATED_PRODUCT_CATEGORY('BE30','BE30',(#524));
#521=APPLICATION_PROTOCOL_DEFINITION('international standard',
'automotive_design',2009,#522);
#522=APPLICATION_CONTEXT(
'Core Data for Automotive Mechanical Design Process');
#523=PRODUCT_CONTEXT('part definition',#522,'mechanical');
#524=PRODUCT('BE300250','BE30',$,(#523));
#525=PRESENTATION_STYLE_ASSIGNMENT((#526));
#526=SURFACE_STYLE_USAGE(.BOTH.,#527);
#527=SURFACE_SIDE_STYLE('',(#528));
#528=SURFACE_STYLE_FILL_AREA(#529);
#529=FILL_AREA_STYLE('',(#530));
#530=FILL_AREA_STYLE_COLOUR('',#531);
#531=COLOUR_RGB('',0.8,0.8,0.8);
ENDSEC;
END-ISO-10303-21;
