ISO-10303-21;
HEADER;
/* Generated by software containing ST-Developer
 * from STEP Tools, Inc. (www.steptools.com) 
 */

FILE_DESCRIPTION(
/* description */ (''),
/* implementation_level */ '2;1');

FILE_NAME(
/* name */ 
'Q:\\Ric010\\FF7\\FIPlastiCAD\\FIP\\Lavoro\\PVC Fittings\\PVC Fittings
 STEP\\NFV\\NFV114.ipt.stp',
/* time_stamp */ '2013-10-01T14:48:12+02:00',
/* author */ ('bfaro'),
/* organization */ (''),
/* preprocessor_version */ 'ST-DEVELOPER v15.2',
/* originating_system */ 'Autodesk Inventor 2014',
/* authorisation */ '');

FILE_SCHEMA (('AUTOMOTIVE_DESIGN { 1 0 10303 214 3 1 1 }'));
ENDSEC;

DATA;
#10=SHAPE_REPRESENTATION_RELATIONSHIP('SRR','None',#533,#11);
#11=ADVANCED_BREP_SHAPE_REPRESENTATION($,(#304),#524);
#12=LINE($,#498,#24);
#13=LINE($,#500,#25);
#14=LINE($,#502,#26);
#15=LINE($,#504,#27);
#16=LINE($,#506,#28);
#17=LINE($,#507,#29);
#18=LINE($,#509,#30);
#19=LINE($,#510,#31);
#20=LINE($,#512,#32);
#21=LINE($,#514,#33);
#22=LINE($,#516,#34);
#23=LINE($,#518,#35);
#24=VECTOR($,#383,25.4034118443435);
#25=VECTOR($,#384,25.4034118443435);
#26=VECTOR($,#385,25.4034118443435);
#27=VECTOR($,#386,25.4034118443436);
#28=VECTOR($,#387,25.4034118443435);
#29=VECTOR($,#388,25.4034118443435);
#30=VECTOR($,#391,9.01194145520226);
#31=VECTOR($,#392,9.01194145520225);
#32=VECTOR($,#395,9.01194145520227);
#33=VECTOR($,#398,9.01194145520227);
#34=VECTOR($,#401,9.01194145520227);
#35=VECTOR($,#404,9.01194145520225);
#36=PLANE($,#326);
#37=PLANE($,#327);
#38=PLANE($,#328);
#39=PLANE($,#329);
#40=PLANE($,#330);
#41=PLANE($,#331);
#42=PLANE($,#332);
#43=PLANE($,#333);
#44=PLANE($,#334);
#45=PLANE($,#335);
#46=PLANE($,#336);
#47=(
BOUNDED_CURVE()
B_SPLINE_CURVE(2,(#444,#445,#446),.UNSPECIFIED.,.F.,.F.)
B_SPLINE_CURVE_WITH_KNOTS((3,3),(13.9068218392398,26.7740998724368),
 .UNSPECIFIED.)
CURVE()
GEOMETRIC_REPRESENTATION_ITEM()
RATIONAL_B_SPLINE_CURVE((1.,1.04114207866551,1.00615079326375))
REPRESENTATION_ITEM($)
);
#48=(
BOUNDED_CURVE()
B_SPLINE_CURVE(2,(#448,#449,#450),.UNSPECIFIED.,.F.,.F.)
B_SPLINE_CURVE_WITH_KNOTS((3,3),(1.03954380604281,13.9068218392398),
 .UNSPECIFIED.)
CURVE()
GEOMETRIC_REPRESENTATION_ITEM()
RATIONAL_B_SPLINE_CURVE((1.00615079326375,1.04114207866555,1.))
REPRESENTATION_ITEM($)
);
#49=(
BOUNDED_CURVE()
B_SPLINE_CURVE(2,(#452,#453,#454),.UNSPECIFIED.,.F.,.F.)
B_SPLINE_CURVE_WITH_KNOTS((3,3),(13.9068218392399,26.7740998724369),
 .UNSPECIFIED.)
CURVE()
GEOMETRIC_REPRESENTATION_ITEM()
RATIONAL_B_SPLINE_CURVE((1.,1.04114207866553,1.00615079326375))
REPRESENTATION_ITEM($)
);
#50=(
BOUNDED_CURVE()
B_SPLINE_CURVE(2,(#456,#457,#458),.UNSPECIFIED.,.F.,.F.)
B_SPLINE_CURVE_WITH_KNOTS((3,3),(1.03954380604285,13.9068218392399),
 .UNSPECIFIED.)
CURVE()
GEOMETRIC_REPRESENTATION_ITEM()
RATIONAL_B_SPLINE_CURVE((1.00615079326375,1.04114207866554,1.))
REPRESENTATION_ITEM($)
);
#51=(
BOUNDED_CURVE()
B_SPLINE_CURVE(2,(#460,#461,#462),.UNSPECIFIED.,.F.,.F.)
B_SPLINE_CURVE_WITH_KNOTS((3,3),(13.9068218392399,26.7740998724369),
 .UNSPECIFIED.)
CURVE()
GEOMETRIC_REPRESENTATION_ITEM()
RATIONAL_B_SPLINE_CURVE((1.,1.04114207866553,1.00615079326375))
REPRESENTATION_ITEM($)
);
#52=(
BOUNDED_CURVE()
B_SPLINE_CURVE(2,(#464,#465,#466),.UNSPECIFIED.,.F.,.F.)
B_SPLINE_CURVE_WITH_KNOTS((3,3),(1.03954380604281,13.9068218392399),
 .UNSPECIFIED.)
CURVE()
GEOMETRIC_REPRESENTATION_ITEM()
RATIONAL_B_SPLINE_CURVE((1.00615079326376,1.04114207866557,1.))
REPRESENTATION_ITEM($)
);
#53=(
BOUNDED_CURVE()
B_SPLINE_CURVE(2,(#468,#469,#470),.UNSPECIFIED.,.F.,.F.)
B_SPLINE_CURVE_WITH_KNOTS((3,3),(13.9068218392399,26.7740998724369),
 .UNSPECIFIED.)
CURVE()
GEOMETRIC_REPRESENTATION_ITEM()
RATIONAL_B_SPLINE_CURVE((1.,1.04114207866556,1.00615079326375))
REPRESENTATION_ITEM($)
);
#54=(
BOUNDED_CURVE()
B_SPLINE_CURVE(2,(#472,#473,#474),.UNSPECIFIED.,.F.,.F.)
B_SPLINE_CURVE_WITH_KNOTS((3,3),(1.03954380604289,13.9068218392399),
 .UNSPECIFIED.)
CURVE()
GEOMETRIC_REPRESENTATION_ITEM()
RATIONAL_B_SPLINE_CURVE((1.00615079326375,1.04114207866554,1.))
REPRESENTATION_ITEM($)
);
#55=(
BOUNDED_CURVE()
B_SPLINE_CURVE(2,(#476,#477,#478),.UNSPECIFIED.,.F.,.F.)
B_SPLINE_CURVE_WITH_KNOTS((3,3),(13.9068218392399,26.7740998724369),
 .UNSPECIFIED.)
CURVE()
GEOMETRIC_REPRESENTATION_ITEM()
RATIONAL_B_SPLINE_CURVE((1.,1.04114207866555,1.00615079326375))
REPRESENTATION_ITEM($)
);
#56=(
BOUNDED_CURVE()
B_SPLINE_CURVE(2,(#480,#481,#482),.UNSPECIFIED.,.F.,.F.)
B_SPLINE_CURVE_WITH_KNOTS((3,3),(1.03954380604286,13.9068218392399),
 .UNSPECIFIED.)
CURVE()
GEOMETRIC_REPRESENTATION_ITEM()
RATIONAL_B_SPLINE_CURVE((1.00615079326375,1.04114207866553,1.))
REPRESENTATION_ITEM($)
);
#57=(
BOUNDED_CURVE()
B_SPLINE_CURVE(2,(#484,#485,#486),.UNSPECIFIED.,.F.,.F.)
B_SPLINE_CURVE_WITH_KNOTS((3,3),(13.9068218392398,26.7740998724368),
 .UNSPECIFIED.)
CURVE()
GEOMETRIC_REPRESENTATION_ITEM()
RATIONAL_B_SPLINE_CURVE((1.,1.04114207866553,1.00615079326375))
REPRESENTATION_ITEM($)
);
#58=(
BOUNDED_CURVE()
B_SPLINE_CURVE(2,(#487,#488,#489),.UNSPECIFIED.,.F.,.F.)
B_SPLINE_CURVE_WITH_KNOTS((3,3),(1.03954380604284,13.9068218392398),
 .UNSPECIFIED.)
CURVE()
GEOMETRIC_REPRESENTATION_ITEM()
RATIONAL_B_SPLINE_CURVE((1.00615079326375,1.04114207866552,1.))
REPRESENTATION_ITEM($)
);
#59=CONICAL_SURFACE($,#321,24.,75.0000000000003);
#60=TOROIDAL_SURFACE($,#309,22.5009139682635,6.00091396826344);
#61=TOROIDAL_SURFACE($,#318,22.5009139682634,6.00091396826349);
#62=FACE_BOUND($,#95,.T.);
#63=FACE_BOUND($,#97,.T.);
#64=FACE_BOUND($,#99,.T.);
#65=FACE_BOUND($,#101,.T.);
#66=FACE_BOUND($,#103,.T.);
#67=FACE_BOUND($,#105,.T.);
#68=FACE_BOUND($,#107,.T.);
#69=FACE_BOUND($,#109,.T.);
#70=FACE_BOUND($,#111,.T.);
#71=FACE_BOUND($,#113,.T.);
#72=FACE_BOUND($,#121,.T.);
#73=FACE_BOUND($,#123,.T.);
#74=FACE_BOUND($,#125,.T.);
#75=FACE_OUTER_BOUND($,#94,.T.);
#76=FACE_OUTER_BOUND($,#96,.T.);
#77=FACE_OUTER_BOUND($,#98,.T.);
#78=FACE_OUTER_BOUND($,#100,.T.);
#79=FACE_OUTER_BOUND($,#102,.T.);
#80=FACE_OUTER_BOUND($,#104,.T.);
#81=FACE_OUTER_BOUND($,#106,.T.);
#82=FACE_OUTER_BOUND($,#108,.T.);
#83=FACE_OUTER_BOUND($,#110,.T.);
#84=FACE_OUTER_BOUND($,#112,.T.);
#85=FACE_OUTER_BOUND($,#114,.T.);
#86=FACE_OUTER_BOUND($,#115,.T.);
#87=FACE_OUTER_BOUND($,#116,.T.);
#88=FACE_OUTER_BOUND($,#117,.T.);
#89=FACE_OUTER_BOUND($,#118,.T.);
#90=FACE_OUTER_BOUND($,#119,.T.);
#91=FACE_OUTER_BOUND($,#120,.T.);
#92=FACE_OUTER_BOUND($,#122,.T.);
#93=FACE_OUTER_BOUND($,#124,.T.);
#94=EDGE_LOOP($,(#204));
#95=EDGE_LOOP($,(#205));
#96=EDGE_LOOP($,(#206));
#97=EDGE_LOOP($,(#207));
#98=EDGE_LOOP($,(#208));
#99=EDGE_LOOP($,(#209));
#100=EDGE_LOOP($,(#210));
#101=EDGE_LOOP($,(#211));
#102=EDGE_LOOP($,(#212));
#103=EDGE_LOOP($,(#213));
#104=EDGE_LOOP($,(#214));
#105=EDGE_LOOP($,(#215,#216,#217,#218,#219,#220,#221,#222,#223,#224,#225,
#226));
#106=EDGE_LOOP($,(#227));
#107=EDGE_LOOP($,(#228));
#108=EDGE_LOOP($,(#229));
#109=EDGE_LOOP($,(#230));
#110=EDGE_LOOP($,(#231));
#111=EDGE_LOOP($,(#232));
#112=EDGE_LOOP($,(#233,#234,#235,#236,#237,#238));
#113=EDGE_LOOP($,(#239));
#114=EDGE_LOOP($,(#240,#241,#242,#243,#244));
#115=EDGE_LOOP($,(#245,#246,#247,#248,#249));
#116=EDGE_LOOP($,(#250,#251,#252,#253,#254));
#117=EDGE_LOOP($,(#255,#256,#257,#258,#259));
#118=EDGE_LOOP($,(#260,#261,#262,#263,#264));
#119=EDGE_LOOP($,(#265,#266,#267,#268,#269));
#120=EDGE_LOOP($,(#270));
#121=EDGE_LOOP($,(#271));
#122=EDGE_LOOP($,(#272));
#123=EDGE_LOOP($,(#273));
#124=EDGE_LOOP($,(#274));
#125=EDGE_LOOP($,(#275));
#126=CIRCLE($,#307,20.95);
#127=CIRCLE($,#308,20.95);
#128=CIRCLE($,#310,16.5036555946504);
#129=CIRCLE($,#311,17.7764067500978);
#130=CIRCLE($,#313,21.45);
#131=CIRCLE($,#314,21.45);
#132=CIRCLE($,#316,20.95);
#133=CIRCLE($,#317,20.95);
#134=CIRCLE($,#319,16.5036555946504);
#135=CIRCLE($,#320,17.7764067500978);
#136=CIRCLE($,#322,26.);
#137=CIRCLE($,#324,26.);
#138=VERTEX_POINT($,#415);
#139=VERTEX_POINT($,#417);
#140=VERTEX_POINT($,#420);
#141=VERTEX_POINT($,#422);
#142=VERTEX_POINT($,#425);
#143=VERTEX_POINT($,#427);
#144=VERTEX_POINT($,#430);
#145=VERTEX_POINT($,#432);
#146=VERTEX_POINT($,#435);
#147=VERTEX_POINT($,#437);
#148=VERTEX_POINT($,#440);
#149=VERTEX_POINT($,#442);
#150=VERTEX_POINT($,#443);
#151=VERTEX_POINT($,#447);
#152=VERTEX_POINT($,#451);
#153=VERTEX_POINT($,#455);
#154=VERTEX_POINT($,#459);
#155=VERTEX_POINT($,#463);
#156=VERTEX_POINT($,#467);
#157=VERTEX_POINT($,#471);
#158=VERTEX_POINT($,#475);
#159=VERTEX_POINT($,#479);
#160=VERTEX_POINT($,#483);
#161=VERTEX_POINT($,#491);
#162=VERTEX_POINT($,#496);
#163=VERTEX_POINT($,#497);
#164=VERTEX_POINT($,#499);
#165=VERTEX_POINT($,#501);
#166=VERTEX_POINT($,#503);
#167=VERTEX_POINT($,#505);
#168=EDGE_CURVE($,#138,#138,#126,.T.);
#169=EDGE_CURVE($,#139,#139,#127,.T.);
#170=EDGE_CURVE($,#140,#140,#128,.T.);
#171=EDGE_CURVE($,#141,#141,#129,.T.);
#172=EDGE_CURVE($,#142,#142,#130,.T.);
#173=EDGE_CURVE($,#143,#143,#131,.T.);
#174=EDGE_CURVE($,#144,#144,#132,.T.);
#175=EDGE_CURVE($,#145,#145,#133,.T.);
#176=EDGE_CURVE($,#146,#146,#134,.T.);
#177=EDGE_CURVE($,#147,#147,#135,.T.);
#178=EDGE_CURVE($,#148,#148,#136,.T.);
#179=EDGE_CURVE($,#149,#150,#47,.T.);
#180=EDGE_CURVE($,#151,#149,#48,.T.);
#181=EDGE_CURVE($,#152,#151,#49,.T.);
#182=EDGE_CURVE($,#153,#152,#50,.T.);
#183=EDGE_CURVE($,#154,#153,#51,.T.);
#184=EDGE_CURVE($,#155,#154,#52,.T.);
#185=EDGE_CURVE($,#156,#155,#53,.T.);
#186=EDGE_CURVE($,#157,#156,#54,.T.);
#187=EDGE_CURVE($,#158,#157,#55,.T.);
#188=EDGE_CURVE($,#159,#158,#56,.T.);
#189=EDGE_CURVE($,#160,#159,#57,.T.);
#190=EDGE_CURVE($,#150,#160,#58,.T.);
#191=EDGE_CURVE($,#161,#161,#137,.T.);
#192=EDGE_CURVE($,#162,#163,#12,.T.);
#193=EDGE_CURVE($,#164,#162,#13,.T.);
#194=EDGE_CURVE($,#165,#164,#14,.T.);
#195=EDGE_CURVE($,#166,#165,#15,.T.);
#196=EDGE_CURVE($,#167,#166,#16,.T.);
#197=EDGE_CURVE($,#163,#167,#17,.T.);
#198=EDGE_CURVE($,#155,#164,#18,.T.);
#199=EDGE_CURVE($,#157,#162,#19,.T.);
#200=EDGE_CURVE($,#159,#163,#20,.T.);
#201=EDGE_CURVE($,#150,#167,#21,.T.);
#202=EDGE_CURVE($,#151,#166,#22,.T.);
#203=EDGE_CURVE($,#153,#165,#23,.T.);
#204=ORIENTED_EDGE($,*,*,#168,.T.);
#205=ORIENTED_EDGE($,*,*,#169,.F.);
#206=ORIENTED_EDGE($,*,*,#170,.T.);
#207=ORIENTED_EDGE($,*,*,#171,.T.);
#208=ORIENTED_EDGE($,*,*,#172,.T.);
#209=ORIENTED_EDGE($,*,*,#173,.F.);
#210=ORIENTED_EDGE($,*,*,#174,.F.);
#211=ORIENTED_EDGE($,*,*,#175,.T.);
#212=ORIENTED_EDGE($,*,*,#176,.F.);
#213=ORIENTED_EDGE($,*,*,#177,.F.);
#214=ORIENTED_EDGE($,*,*,#178,.T.);
#215=ORIENTED_EDGE($,*,*,#179,.F.);
#216=ORIENTED_EDGE($,*,*,#180,.F.);
#217=ORIENTED_EDGE($,*,*,#181,.F.);
#218=ORIENTED_EDGE($,*,*,#182,.F.);
#219=ORIENTED_EDGE($,*,*,#183,.F.);
#220=ORIENTED_EDGE($,*,*,#184,.F.);
#221=ORIENTED_EDGE($,*,*,#185,.F.);
#222=ORIENTED_EDGE($,*,*,#186,.F.);
#223=ORIENTED_EDGE($,*,*,#187,.F.);
#224=ORIENTED_EDGE($,*,*,#188,.F.);
#225=ORIENTED_EDGE($,*,*,#189,.F.);
#226=ORIENTED_EDGE($,*,*,#190,.F.);
#227=ORIENTED_EDGE($,*,*,#191,.T.);
#228=ORIENTED_EDGE($,*,*,#178,.F.);
#229=ORIENTED_EDGE($,*,*,#176,.T.);
#230=ORIENTED_EDGE($,*,*,#170,.F.);
#231=ORIENTED_EDGE($,*,*,#191,.F.);
#232=ORIENTED_EDGE($,*,*,#168,.F.);
#233=ORIENTED_EDGE($,*,*,#192,.F.);
#234=ORIENTED_EDGE($,*,*,#193,.F.);
#235=ORIENTED_EDGE($,*,*,#194,.F.);
#236=ORIENTED_EDGE($,*,*,#195,.F.);
#237=ORIENTED_EDGE($,*,*,#196,.F.);
#238=ORIENTED_EDGE($,*,*,#197,.F.);
#239=ORIENTED_EDGE($,*,*,#172,.F.);
#240=ORIENTED_EDGE($,*,*,#186,.T.);
#241=ORIENTED_EDGE($,*,*,#185,.T.);
#242=ORIENTED_EDGE($,*,*,#198,.T.);
#243=ORIENTED_EDGE($,*,*,#193,.T.);
#244=ORIENTED_EDGE($,*,*,#199,.F.);
#245=ORIENTED_EDGE($,*,*,#188,.T.);
#246=ORIENTED_EDGE($,*,*,#187,.T.);
#247=ORIENTED_EDGE($,*,*,#199,.T.);
#248=ORIENTED_EDGE($,*,*,#192,.T.);
#249=ORIENTED_EDGE($,*,*,#200,.F.);
#250=ORIENTED_EDGE($,*,*,#190,.T.);
#251=ORIENTED_EDGE($,*,*,#189,.T.);
#252=ORIENTED_EDGE($,*,*,#200,.T.);
#253=ORIENTED_EDGE($,*,*,#197,.T.);
#254=ORIENTED_EDGE($,*,*,#201,.F.);
#255=ORIENTED_EDGE($,*,*,#180,.T.);
#256=ORIENTED_EDGE($,*,*,#179,.T.);
#257=ORIENTED_EDGE($,*,*,#201,.T.);
#258=ORIENTED_EDGE($,*,*,#196,.T.);
#259=ORIENTED_EDGE($,*,*,#202,.F.);
#260=ORIENTED_EDGE($,*,*,#184,.T.);
#261=ORIENTED_EDGE($,*,*,#183,.T.);
#262=ORIENTED_EDGE($,*,*,#203,.T.);
#263=ORIENTED_EDGE($,*,*,#194,.T.);
#264=ORIENTED_EDGE($,*,*,#198,.F.);
#265=ORIENTED_EDGE($,*,*,#182,.T.);
#266=ORIENTED_EDGE($,*,*,#181,.T.);
#267=ORIENTED_EDGE($,*,*,#202,.T.);
#268=ORIENTED_EDGE($,*,*,#195,.T.);
#269=ORIENTED_EDGE($,*,*,#203,.F.);
#270=ORIENTED_EDGE($,*,*,#175,.F.);
#271=ORIENTED_EDGE($,*,*,#177,.T.);
#272=ORIENTED_EDGE($,*,*,#173,.T.);
#273=ORIENTED_EDGE($,*,*,#174,.T.);
#274=ORIENTED_EDGE($,*,*,#169,.T.);
#275=ORIENTED_EDGE($,*,*,#171,.F.);
#276=CYLINDRICAL_SURFACE($,#306,20.95);
#277=CYLINDRICAL_SURFACE($,#312,21.45);
#278=CYLINDRICAL_SURFACE($,#315,20.95);
#279=CYLINDRICAL_SURFACE($,#323,26.);
#280=CYLINDRICAL_SURFACE($,#325,16.5036555946504);
#281=STYLED_ITEM($,(#542),#284);
#282=STYLED_ITEM($,(#542),#287);
#283=STYLED_ITEM($,(#541),#304);
#284=ADVANCED_FACE($,(#75,#62),#276,.T.);
#285=ADVANCED_FACE($,(#76,#63),#60,.T.);
#286=ADVANCED_FACE($,(#77,#64),#277,.T.);
#287=ADVANCED_FACE($,(#78,#65),#278,.T.);
#288=ADVANCED_FACE($,(#79,#66),#61,.T.);
#289=ADVANCED_FACE($,(#80,#67),#59,.T.);
#290=ADVANCED_FACE($,(#81,#68),#279,.T.);
#291=ADVANCED_FACE($,(#82,#69),#280,.F.);
#292=ADVANCED_FACE($,(#83,#70),#36,.T.);
#293=ADVANCED_FACE($,(#84,#71),#37,.T.);
#294=ADVANCED_FACE($,(#85),#38,.T.);
#295=ADVANCED_FACE($,(#86),#39,.T.);
#296=ADVANCED_FACE($,(#87),#40,.T.);
#297=ADVANCED_FACE($,(#88),#41,.T.);
#298=ADVANCED_FACE($,(#89),#42,.T.);
#299=ADVANCED_FACE($,(#90),#43,.T.);
#300=ADVANCED_FACE($,(#91,#72),#44,.T.);
#301=ADVANCED_FACE($,(#92,#73),#45,.T.);
#302=ADVANCED_FACE($,(#93,#74),#46,.T.);
#303=CLOSED_SHELL($,(#284,#285,#286,#287,#288,#289,#290,#291,#292,#293,
#294,#295,#296,#297,#298,#299,#300,#301,#302));
#304=MANIFOLD_SOLID_BREP('7A8',#303);
#305=AXIS2_PLACEMENT_3D('placement',#413,#337,#338);
#306=AXIS2_PLACEMENT_3D($,#414,#339,#340);
#307=AXIS2_PLACEMENT_3D($,#416,#341,#342);
#308=AXIS2_PLACEMENT_3D($,#418,#343,#344);
#309=AXIS2_PLACEMENT_3D($,#419,#345,#346);
#310=AXIS2_PLACEMENT_3D($,#421,#347,#348);
#311=AXIS2_PLACEMENT_3D($,#423,#349,#350);
#312=AXIS2_PLACEMENT_3D($,#424,#351,#352);
#313=AXIS2_PLACEMENT_3D($,#426,#353,#354);
#314=AXIS2_PLACEMENT_3D($,#428,#355,#356);
#315=AXIS2_PLACEMENT_3D($,#429,#357,#358);
#316=AXIS2_PLACEMENT_3D($,#431,#359,#360);
#317=AXIS2_PLACEMENT_3D($,#433,#361,#362);
#318=AXIS2_PLACEMENT_3D($,#434,#363,#364);
#319=AXIS2_PLACEMENT_3D($,#436,#365,#366);
#320=AXIS2_PLACEMENT_3D($,#438,#367,#368);
#321=AXIS2_PLACEMENT_3D($,#439,#369,#370);
#322=AXIS2_PLACEMENT_3D($,#441,#371,#372);
#323=AXIS2_PLACEMENT_3D($,#490,#373,#374);
#324=AXIS2_PLACEMENT_3D($,#492,#375,#376);
#325=AXIS2_PLACEMENT_3D($,#493,#377,#378);
#326=AXIS2_PLACEMENT_3D($,#494,#379,#380);
#327=AXIS2_PLACEMENT_3D($,#495,#381,#382);
#328=AXIS2_PLACEMENT_3D($,#508,#389,#390);
#329=AXIS2_PLACEMENT_3D($,#511,#393,#394);
#330=AXIS2_PLACEMENT_3D($,#513,#396,#397);
#331=AXIS2_PLACEMENT_3D($,#515,#399,#400);
#332=AXIS2_PLACEMENT_3D($,#517,#402,#403);
#333=AXIS2_PLACEMENT_3D($,#519,#405,#406);
#334=AXIS2_PLACEMENT_3D($,#520,#407,#408);
#335=AXIS2_PLACEMENT_3D($,#521,#409,#410);
#336=AXIS2_PLACEMENT_3D($,#522,#411,#412);
#337=DIRECTION('axis',(0.,0.,1.));
#338=DIRECTION('refdir',(1.,0.,0.));
#339=DIRECTION('center_axis',(-1.,1.224606E-016,0.));
#340=DIRECTION('ref_axis',(1.224606E-016,1.,0.));
#341=DIRECTION('center_axis',(-1.,0.,0.));
#342=DIRECTION('ref_axis',(0.,1.,0.));
#343=DIRECTION('center_axis',(-1.,0.,0.));
#344=DIRECTION('ref_axis',(0.,1.,0.));
#345=DIRECTION('center_axis',(1.,-1.83691E-016,0.));
#346=DIRECTION('ref_axis',(0.,0.,1.));
#347=DIRECTION('center_axis',(1.,0.,0.));
#348=DIRECTION('ref_axis',(0.,1.,0.));
#349=DIRECTION('center_axis',(-1.,0.,0.));
#350=DIRECTION('ref_axis',(0.,1.,0.));
#351=DIRECTION('center_axis',(1.,0.,0.));
#352=DIRECTION('ref_axis',(0.,1.,0.));
#353=DIRECTION('center_axis',(1.,0.,0.));
#354=DIRECTION('ref_axis',(0.,1.,0.));
#355=DIRECTION('center_axis',(1.,0.,0.));
#356=DIRECTION('ref_axis',(0.,1.,0.));
#357=DIRECTION('center_axis',(-1.,-7.7019687271861E-032,-2.5692156525899E-016));
#358=DIRECTION('ref_axis',(0.,-1.,2.99778989724826E-016));
#359=DIRECTION('center_axis',(-1.,0.,0.));
#360=DIRECTION('ref_axis',(0.,1.,0.));
#361=DIRECTION('center_axis',(-1.,0.,0.));
#362=DIRECTION('ref_axis',(0.,1.,0.));
#363=DIRECTION('center_axis',(1.,-1.3047397145427E-016,1.61217857796851E-015));
#364=DIRECTION('ref_axis',(1.4957835069578E-015,0.,-1.));
#365=DIRECTION('center_axis',(1.,0.,0.));
#366=DIRECTION('ref_axis',(0.,1.,0.));
#367=DIRECTION('center_axis',(-1.,0.,0.));
#368=DIRECTION('ref_axis',(0.,1.,0.));
#369=DIRECTION('center_axis',(-1.,1.83691E-016,0.));
#370=DIRECTION('ref_axis',(1.83691E-016,1.,0.));
#371=DIRECTION('center_axis',(1.,0.,0.));
#372=DIRECTION('ref_axis',(0.,1.,0.));
#373=DIRECTION('center_axis',(1.,-1.83691E-016,0.));
#374=DIRECTION('ref_axis',(1.83691E-016,1.,0.));
#375=DIRECTION('center_axis',(1.,0.,0.));
#376=DIRECTION('ref_axis',(0.,1.,0.));
#377=DIRECTION('center_axis',(1.,0.,0.));
#378=DIRECTION('ref_axis',(0.,1.,0.));
#379=DIRECTION('center_axis',(-1.,0.,0.));
#380=DIRECTION('ref_axis',(0.,0.,-1.));
#381=DIRECTION('center_axis',(1.,0.,0.));
#382=DIRECTION('ref_axis',(0.,0.,-1.));
#383=DIRECTION($,(0.,-1.,0.));
#384=DIRECTION($,(0.,-0.500000000000001,-0.866025403784438));
#385=DIRECTION($,(0.,0.499999999999999,-0.866025403784439));
#386=DIRECTION($,(0.,1.,0.));
#387=DIRECTION($,(0.,0.500000000000001,0.866025403784438));
#388=DIRECTION($,(0.,-0.5,0.866025403784439));
#389=DIRECTION('center_axis',(0.,0.866025403784438,-0.500000000000001));
#390=DIRECTION('ref_axis',(-1.,0.,0.));
#391=DIRECTION($,(1.,0.,0.));
#392=DIRECTION($,(1.,0.,0.));
#393=DIRECTION('center_axis',(0.,0.,-1.));
#394=DIRECTION('ref_axis',(-1.,0.,0.));
#395=DIRECTION($,(1.,0.,0.));
#396=DIRECTION('center_axis',(0.,-0.866025403784439,-0.5));
#397=DIRECTION('ref_axis',(0.,0.500000000000001,-0.866025403784438));
#398=DIRECTION($,(1.,0.,0.));
#399=DIRECTION('center_axis',(0.,-0.866025403784438,0.500000000000001));
#400=DIRECTION('ref_axis',(1.,0.,0.));
#401=DIRECTION($,(1.,0.,0.));
#402=DIRECTION('center_axis',(0.,0.866025403784439,0.499999999999999));
#403=DIRECTION('ref_axis',(0.,-0.499999999999999,0.866025403784439));
#404=DIRECTION($,(1.,0.,0.));
#405=DIRECTION('center_axis',(0.,0.,1.));
#406=DIRECTION('ref_axis',(1.,0.,0.));
#407=DIRECTION('center_axis',(1.,1.05987878245838E-016,0.));
#408=DIRECTION('ref_axis',(0.,0.,-1.));
#409=DIRECTION('center_axis',(1.,0.,0.));
#410=DIRECTION('ref_axis',(0.,0.,-1.));
#411=DIRECTION('center_axis',(-1.,0.,0.));
#412=DIRECTION('ref_axis',(0.,0.,1.));
#413=CARTESIAN_POINT('',(0.,0.,0.));
#414=CARTESIAN_POINT('Origin',(10.7,-1.310329E-015,0.));
#415=CARTESIAN_POINT('',(21.4,-20.95,2.56555E-015));
#416=CARTESIAN_POINT('Origin',(21.4,-2.620658E-015,0.));
#417=CARTESIAN_POINT('',(-1.776357E-015,-20.95,2.56555E-015));
#418=CARTESIAN_POINT('Origin',(6.998148E-016,-2.625964E-031,0.));
#419=CARTESIAN_POINT('Origin',(3.70000000000005,0.,0.));
#420=CARTESIAN_POINT('',(3.49057112274803,-16.5036555946504,-2.021048E-015));
#421=CARTESIAN_POINT('Origin',(3.49057112274802,0.,0.));
#422=CARTESIAN_POINT('',(3.265365E-015,17.7764067500978,0.));
#423=CARTESIAN_POINT('Origin',(1.088455E-015,-3.101896E-031,0.));
#424=CARTESIAN_POINT('Origin',(29.95,-3.101896E-031,0.));
#425=CARTESIAN_POINT('',(33.5,-21.45,-2.626781E-015));
#426=CARTESIAN_POINT('Origin',(33.5,-3.101896E-031,0.));
#427=CARTESIAN_POINT('',(35.6,-21.45,-2.626781E-015));
#428=CARTESIAN_POINT('Origin',(35.6,-3.101896E-031,0.));
#429=CARTESIAN_POINT('Origin',(46.3,4.44089209850063E-015,-3.7148198347351E-015));
#430=CARTESIAN_POINT('',(35.6,-20.95,2.56555E-015));
#431=CARTESIAN_POINT('Origin',(35.6,-2.620658E-015,0.));
#432=CARTESIAN_POINT('',(57.,-20.95,2.56555E-015));
#433=CARTESIAN_POINT('Origin',(57.,-2.625964E-031,0.));
#434=CARTESIAN_POINT('Origin',(53.2999999999999,-2.75821032680312E-014,
-9.32587340685131E-014));
#435=CARTESIAN_POINT('',(53.509428877252,-16.5036555946504,-2.021048E-015));
#436=CARTESIAN_POINT('Origin',(53.509428877252,0.,0.));
#437=CARTESIAN_POINT('',(57.,17.7764067500978,0.));
#438=CARTESIAN_POINT('Origin',(57.,-3.101896E-031,0.));
#439=CARTESIAN_POINT('Origin',(24.8641016151378,0.,0.));
#440=CARTESIAN_POINT('',(24.3282032302756,-26.,-3.183977E-015));
#441=CARTESIAN_POINT('Origin',(24.3282032302756,0.,0.));
#442=CARTESIAN_POINT('',(25.4,-19.0525588832576,11.));
#443=CARTESIAN_POINT('',(24.4880585447977,-25.4034118443435,9.769963E-015));
#444=CARTESIAN_POINT('Ctrl Pts',(25.4,-19.0525588832576,11.));
#445=CARTESIAN_POINT('Ctrl Pts',(25.4000000000001,-21.9999999999999,5.89488223348482));
#446=CARTESIAN_POINT('Ctrl Pts',(24.4880585447977,-25.4034118443435,9.769963E-015));
#447=CARTESIAN_POINT('',(24.4880585447977,-12.7017059221718,22.));
#448=CARTESIAN_POINT('Ctrl Pts',(24.4880585447977,-12.7017059221718,22.));
#449=CARTESIAN_POINT('Ctrl Pts',(25.4000000000001,-16.1051177665153,16.1051177665152));
#450=CARTESIAN_POINT('Ctrl Pts',(25.4,-19.0525588832576,11.));
#451=CARTESIAN_POINT('',(25.4,1.865175E-014,22.));
#452=CARTESIAN_POINT('Ctrl Pts',(25.4,1.865175E-014,22.));
#453=CARTESIAN_POINT('Ctrl Pts',(25.4000000000001,-5.89488223348457,22.));
#454=CARTESIAN_POINT('Ctrl Pts',(24.4880585447977,-12.7017059221718,22.));
#455=CARTESIAN_POINT('',(24.4880585447977,12.7017059221718,22.));
#456=CARTESIAN_POINT('Ctrl Pts',(24.4880585447977,12.7017059221718,22.));
#457=CARTESIAN_POINT('Ctrl Pts',(25.4000000000001,5.89488223348467,22.));
#458=CARTESIAN_POINT('Ctrl Pts',(25.4,1.865175E-014,22.));
#459=CARTESIAN_POINT('',(25.4,19.0525588832577,11.));
#460=CARTESIAN_POINT('Ctrl Pts',(25.4,19.0525588832577,11.));
#461=CARTESIAN_POINT('Ctrl Pts',(25.4000000000001,16.1051177665154,16.1051177665152));
#462=CARTESIAN_POINT('Ctrl Pts',(24.4880585447977,12.7017059221718,22.));
#463=CARTESIAN_POINT('',(24.4880585447977,25.4034118443435,-2.209344E-014));
#464=CARTESIAN_POINT('Ctrl Pts',(24.4880585447977,25.4034118443435,-2.209344E-014));
#465=CARTESIAN_POINT('Ctrl Pts',(25.4000000000001,22.,5.89488223348475));
#466=CARTESIAN_POINT('Ctrl Pts',(25.4,19.0525588832577,11.));
#467=CARTESIAN_POINT('',(25.4,19.0525588832576,-11.));
#468=CARTESIAN_POINT('Ctrl Pts',(25.4,19.0525588832576,-11.));
#469=CARTESIAN_POINT('Ctrl Pts',(25.4000000000001,22.,-5.89488223348475));
#470=CARTESIAN_POINT('Ctrl Pts',(24.4880585447977,25.4034118443435,-2.209344E-014));
#471=CARTESIAN_POINT('',(24.4880585447977,12.7017059221718,-22.));
#472=CARTESIAN_POINT('Ctrl Pts',(24.4880585447977,12.7017059221718,-22.));
#473=CARTESIAN_POINT('Ctrl Pts',(25.4000000000001,16.1051177665153,-16.1051177665153));
#474=CARTESIAN_POINT('Ctrl Pts',(25.4,19.0525588832576,-11.));
#475=CARTESIAN_POINT('',(25.4,-1.24345E-014,-22.));
#476=CARTESIAN_POINT('Ctrl Pts',(25.4,-1.24345E-014,-22.));
#477=CARTESIAN_POINT('Ctrl Pts',(25.4000000000001,5.89488223348463,-22.));
#478=CARTESIAN_POINT('Ctrl Pts',(24.4880585447977,12.7017059221718,-22.));
#479=CARTESIAN_POINT('',(24.4880585447977,-12.7017059221718,-22.));
#480=CARTESIAN_POINT('Ctrl Pts',(24.4880585447977,-12.7017059221718,-22.));
#481=CARTESIAN_POINT('Ctrl Pts',(25.4000000000001,-5.8948822334846,-22.));
#482=CARTESIAN_POINT('Ctrl Pts',(25.4,-1.24345E-014,-22.));
#483=CARTESIAN_POINT('',(25.4,-19.0525588832577,-11.));
#484=CARTESIAN_POINT('Ctrl Pts',(25.4,-19.0525588832577,-11.));
#485=CARTESIAN_POINT('Ctrl Pts',(25.4000000000001,-16.1051177665154,-16.1051177665152));
#486=CARTESIAN_POINT('Ctrl Pts',(24.4880585447977,-12.7017059221718,-22.));
#487=CARTESIAN_POINT('Ctrl Pts',(24.4880585447977,-25.4034118443435,9.769963E-015));
#488=CARTESIAN_POINT('Ctrl Pts',(25.4,-22.,-5.89488223348471));
#489=CARTESIAN_POINT('Ctrl Pts',(25.4,-19.0525588832577,-11.));
#490=CARTESIAN_POINT('Origin',(22.8641016151378,0.,0.));
#491=CARTESIAN_POINT('',(21.4,-26.,-3.183977E-015));
#492=CARTESIAN_POINT('Origin',(21.4,0.,0.));
#493=CARTESIAN_POINT('Origin',(30.245285561374,-3.101896E-031,0.));
#494=CARTESIAN_POINT('Origin',(21.4,23.675,0.));
#495=CARTESIAN_POINT('Origin',(33.5,0.,3.108624E-015));
#496=CARTESIAN_POINT('',(33.5,12.7017059221718,-22.));
#497=CARTESIAN_POINT('',(33.5,-12.7017059221718,-22.));
#498=CARTESIAN_POINT($,(33.5,12.7017059221718,-22.));
#499=CARTESIAN_POINT('',(33.5,25.4034118443435,-2.209344E-014));
#500=CARTESIAN_POINT($,(33.5,25.4034118443435,-2.209344E-014));
#501=CARTESIAN_POINT('',(33.5,12.7017059221718,22.));
#502=CARTESIAN_POINT($,(33.5,12.7017059221718,22.));
#503=CARTESIAN_POINT('',(33.5,-12.7017059221718,22.));
#504=CARTESIAN_POINT($,(33.5,-12.7017059221718,22.));
#505=CARTESIAN_POINT('',(33.5,-25.4034118443435,9.769963E-015));
#506=CARTESIAN_POINT($,(33.5,-25.4034118443435,9.769963E-015));
#507=CARTESIAN_POINT($,(33.5,-12.7017059221718,-22.));
#508=CARTESIAN_POINT('Origin',(24.3,25.4034118443435,-2.209344E-014));
#509=CARTESIAN_POINT($,(24.4880585447977,25.4034118443435,-2.209344E-014));
#510=CARTESIAN_POINT($,(24.4880585447977,12.7017059221718,-22.));
#511=CARTESIAN_POINT('Origin',(24.3,12.7017059221718,-22.));
#512=CARTESIAN_POINT($,(24.4880585447977,-12.7017059221718,-22.));
#513=CARTESIAN_POINT('Origin',(24.3,-12.7017059221718,-22.));
#514=CARTESIAN_POINT($,(24.4880585447977,-25.4034118443435,9.769963E-015));
#515=CARTESIAN_POINT('Origin',(24.3,-25.4034118443435,9.769963E-015));
#516=CARTESIAN_POINT($,(24.4880585447977,-12.7017059221718,22.));
#517=CARTESIAN_POINT('Origin',(24.3,12.7017059221718,22.));
#518=CARTESIAN_POINT($,(24.4880585447977,12.7017059221718,22.));
#519=CARTESIAN_POINT('Origin',(24.3,-12.7017059221718,22.));
#520=CARTESIAN_POINT('Origin',(57.,20.95,0.));
#521=CARTESIAN_POINT('Origin',(35.6,10.725,0.));
#522=CARTESIAN_POINT('Origin',(3.265365E-015,19.3632033750489,0.));
#523=UNCERTAINTY_MEASURE_WITH_UNIT(LENGTH_MEASURE(0.01),#525,
'DISTANCE_ACCURACY_VALUE',
'Maximum model space distance between geometric entities at asserted c
onnectivities');
#524=(
GEOMETRIC_REPRESENTATION_CONTEXT(3)
GLOBAL_UNCERTAINTY_ASSIGNED_CONTEXT((#523))
GLOBAL_UNIT_ASSIGNED_CONTEXT((#525,#528,#526))
REPRESENTATION_CONTEXT('','3D')
);
#525=(
LENGTH_UNIT()
NAMED_UNIT(*)
SI_UNIT(.MILLI.,.METRE.)
);
#526=(
NAMED_UNIT(*)
SI_UNIT($,.STERADIAN.)
SOLID_ANGLE_UNIT()
);
#527=DIMENSIONAL_EXPONENTS(0.,0.,0.,0.,0.,0.,0.);
#528=(
CONVERSION_BASED_UNIT('degree',#530)
NAMED_UNIT(#527)
PLANE_ANGLE_UNIT()
);
#529=(
NAMED_UNIT(*)
PLANE_ANGLE_UNIT()
SI_UNIT($,.RADIAN.)
);
#530=PLANE_ANGLE_MEASURE_WITH_UNIT(PLANE_ANGLE_MEASURE(0.01745329252),#529);
#531=SHAPE_DEFINITION_REPRESENTATION(#532,#533);
#532=PRODUCT_DEFINITION_SHAPE('',$,#535);
#533=SHAPE_REPRESENTATION('',(#305),#524);
#534=PRODUCT_DEFINITION_CONTEXT('3D Mechanical Parts',#538,'design');
#535=PRODUCT_DEFINITION('NFV114','NFV114',#536,#534);
#536=PRODUCT_DEFINITION_FORMATION('',$,#540);
#537=APPLICATION_PROTOCOL_DEFINITION('international standard',
'automotive_design',2009,#538);
#538=APPLICATION_CONTEXT(
'Core Data for Automotive Mechanical Design Process');
#539=PRODUCT_CONTEXT('3D Mechanical Parts',#538,'mechanical');
#540=PRODUCT('NFV114','NFV114',$,(#539));
#541=PRESENTATION_STYLE_ASSIGNMENT((#543));
#542=PRESENTATION_STYLE_ASSIGNMENT((#544));
#543=SURFACE_STYLE_USAGE(.BOTH.,#545);
#544=SURFACE_STYLE_USAGE(.BOTH.,#546);
#545=SURFACE_SIDE_STYLE($,(#547));
#546=SURFACE_SIDE_STYLE($,(#548));
#547=SURFACE_STYLE_FILL_AREA(#549);
#548=SURFACE_STYLE_FILL_AREA(#550);
#549=FILL_AREA_STYLE($,(#551));
#550=FILL_AREA_STYLE($,(#552));
#551=FILL_AREA_STYLE_COLOUR($,#553);
#552=FILL_AREA_STYLE_COLOUR($,#554);
#553=COLOUR_RGB('',0.509803921568627,0.509803921568627,0.588235294117647);
#554=COLOUR_RGB('',1.,0.,0.);
ENDSEC;
END-ISO-10303-21;
