ISO-10303-21;
HEADER;
/* Generated by software containing ST-Developer
 * from STEP Tools, Inc. (www.steptools.com) 
 */

FILE_DESCRIPTION(
/* description */ (''),
/* implementation_level */ '2;1');

FILE_NAME(
/* name */ 
'Q:\\Ric010\\FF7\\FIPlastiCAD\\FIP\\Lavoro\\PVC Fittings\\PVC Fittings
 STEP\\PFV\\PFV038.ipt.stp',
/* time_stamp */ '2013-10-01T14:50:37+02:00',
/* author */ ('bfaro'),
/* organization */ (''),
/* preprocessor_version */ 'ST-DEVELOPER v15.2',
/* originating_system */ 'Autodesk Inventor 2014',
/* authorisation */ '');

FILE_SCHEMA (('AUTOMOTIVE_DESIGN { 1 0 10303 214 3 1 1 }'));
ENDSEC;

DATA;
#10=SHAPE_REPRESENTATION_RELATIONSHIP('SRR','None',#500,#11);
#11=ADVANCED_BREP_SHAPE_REPRESENTATION($,(#271),#491);
#12=LINE($,#466,#24);
#13=LINE($,#468,#25);
#14=LINE($,#469,#26);
#15=LINE($,#472,#27);
#16=LINE($,#473,#28);
#17=LINE($,#476,#29);
#18=LINE($,#477,#30);
#19=LINE($,#480,#31);
#20=LINE($,#481,#32);
#21=LINE($,#484,#33);
#22=LINE($,#485,#34);
#23=LINE($,#488,#35);
#24=VECTOR($,#333,6.07693394917814);
#25=VECTOR($,#334,10.3923048454133);
#26=VECTOR($,#335,6.07693394917814);
#27=VECTOR($,#338,6.07693394917814);
#28=VECTOR($,#339,10.3923048454133);
#29=VECTOR($,#342,6.07693394917814);
#30=VECTOR($,#343,10.3923048454133);
#31=VECTOR($,#346,6.07693394917814);
#32=VECTOR($,#347,10.3923048454133);
#33=VECTOR($,#350,10.3923048454133);
#34=VECTOR($,#351,10.3923048454133);
#35=VECTOR($,#356,6.07693394917814);
#36=PLANE($,#287);
#37=PLANE($,#288);
#38=PLANE($,#289);
#39=PLANE($,#290);
#40=PLANE($,#291);
#41=PLANE($,#292);
#42=PLANE($,#293);
#43=PLANE($,#294);
#44=PLANE($,#295);
#45=PLANE($,#296);
#46=CONICAL_SURFACE($,#284,10.,74.9999999999997);
#47=CONICAL_SURFACE($,#285,5.98276078418978,0.999999999999984);
#48=CYLINDRICAL_SURFACE($,#278,8.29999999999997);
#49=CYLINDRICAL_SURFACE($,#281,11.);
#50=STYLED_ITEM($,(#509),#256);
#51=STYLED_ITEM($,(#508),#271);
#52=FACE_BOUND($,#79,.T.);
#53=FACE_BOUND($,#81,.T.);
#54=FACE_BOUND($,#83,.T.);
#55=FACE_BOUND($,#85,.T.);
#56=FACE_BOUND($,#87,.T.);
#57=FACE_BOUND($,#89,.T.);
#58=FACE_BOUND($,#91,.T.);
#59=FACE_BOUND($,#97,.T.);
#60=TOROIDAL_SURFACE($,#275,12.1081078441723,6.);
#61=FACE_OUTER_BOUND($,#77,.T.);
#62=FACE_OUTER_BOUND($,#78,.T.);
#63=FACE_OUTER_BOUND($,#80,.T.);
#64=FACE_OUTER_BOUND($,#82,.T.);
#65=FACE_OUTER_BOUND($,#84,.T.);
#66=FACE_OUTER_BOUND($,#86,.T.);
#67=FACE_OUTER_BOUND($,#88,.T.);
#68=FACE_OUTER_BOUND($,#90,.T.);
#69=FACE_OUTER_BOUND($,#92,.T.);
#70=FACE_OUTER_BOUND($,#93,.T.);
#71=FACE_OUTER_BOUND($,#94,.T.);
#72=FACE_OUTER_BOUND($,#95,.T.);
#73=FACE_OUTER_BOUND($,#96,.T.);
#74=FACE_OUTER_BOUND($,#98,.T.);
#75=FACE_OUTER_BOUND($,#99,.T.);
#76=FACE_OUTER_BOUND($,#100,.T.);
#77=EDGE_LOOP($,(#185,#186,#187,#188));
#78=EDGE_LOOP($,(#189));
#79=EDGE_LOOP($,(#190));
#80=EDGE_LOOP($,(#191));
#81=EDGE_LOOP($,(#192));
#82=EDGE_LOOP($,(#193));
#83=EDGE_LOOP($,(#194));
#84=EDGE_LOOP($,(#195,#196,#197,#198,#199,#200,#201,#202,#203,#204,#205,
#206));
#85=EDGE_LOOP($,(#207));
#86=EDGE_LOOP($,(#208));
#87=EDGE_LOOP($,(#209));
#88=EDGE_LOOP($,(#210));
#89=EDGE_LOOP($,(#211));
#90=EDGE_LOOP($,(#212));
#91=EDGE_LOOP($,(#213));
#92=EDGE_LOOP($,(#214,#215,#216,#217,#218));
#93=EDGE_LOOP($,(#219,#220,#221,#222,#223));
#94=EDGE_LOOP($,(#224,#225,#226,#227,#228));
#95=EDGE_LOOP($,(#229,#230,#231,#232,#233));
#96=EDGE_LOOP($,(#234,#235,#236,#237,#238,#239));
#97=EDGE_LOOP($,(#240,#241));
#98=EDGE_LOOP($,(#242));
#99=EDGE_LOOP($,(#243,#244,#245,#246,#247));
#100=EDGE_LOOP($,(#248,#249,#250,#251,#252));
#101=(
BOUNDED_CURVE()
B_SPLINE_CURVE(2,(#391,#392,#393),.UNSPECIFIED.,.F.,.F.)
B_SPLINE_CURVE_WITH_KNOTS((3,3),(1.03385934991342,1.55819760314498),
 .UNSPECIFIED.)
CURVE()
GEOMETRIC_REPRESENTATION_ITEM()
RATIONAL_B_SPLINE_CURVE((1.,0.965830064819495,1.))
REPRESENTATION_ITEM($)
);
#102=(
BOUNDED_CURVE()
B_SPLINE_CURVE(2,(#413,#414,#415),.UNSPECIFIED.,.F.,.F.)
B_SPLINE_CURVE_WITH_KNOTS((3,3),(6.35202256676701,11.6901958661478),
 .UNSPECIFIED.)
CURVE()
GEOMETRIC_REPRESENTATION_ITEM()
RATIONAL_B_SPLINE_CURVE((1.,1.04545881585954,1.01451140535821))
REPRESENTATION_ITEM($)
);
#103=(
BOUNDED_CURVE()
B_SPLINE_CURVE(2,(#417,#418,#419),.UNSPECIFIED.,.F.,.F.)
B_SPLINE_CURVE_WITH_KNOTS((3,3),(1.01384926738619,6.35202256676701),
 .UNSPECIFIED.)
CURVE()
GEOMETRIC_REPRESENTATION_ITEM()
RATIONAL_B_SPLINE_CURVE((1.01451140535821,1.04545881585952,1.))
REPRESENTATION_ITEM($)
);
#104=(
BOUNDED_CURVE()
B_SPLINE_CURVE(2,(#421,#422,#423),.UNSPECIFIED.,.F.,.F.)
B_SPLINE_CURVE_WITH_KNOTS((3,3),(6.35202256676699,11.6901958661479),
 .UNSPECIFIED.)
CURVE()
GEOMETRIC_REPRESENTATION_ITEM()
RATIONAL_B_SPLINE_CURVE((1.,1.04545881585966,1.01451140535825))
REPRESENTATION_ITEM($)
);
#105=(
BOUNDED_CURVE()
B_SPLINE_CURVE(2,(#425,#426,#427),.UNSPECIFIED.,.F.,.F.)
B_SPLINE_CURVE_WITH_KNOTS((3,3),(1.01384926738607,6.35202256676699),
 .UNSPECIFIED.)
CURVE()
GEOMETRIC_REPRESENTATION_ITEM()
RATIONAL_B_SPLINE_CURVE((1.01451140535825,1.04545881585966,1.))
REPRESENTATION_ITEM($)
);
#106=(
BOUNDED_CURVE()
B_SPLINE_CURVE(2,(#429,#430,#431),.UNSPECIFIED.,.F.,.F.)
B_SPLINE_CURVE_WITH_KNOTS((3,3),(6.35202256676701,11.6901958661478),
 .UNSPECIFIED.)
CURVE()
GEOMETRIC_REPRESENTATION_ITEM()
RATIONAL_B_SPLINE_CURVE((1.,1.04545881585954,1.01451140535821))
REPRESENTATION_ITEM($)
);
#107=(
BOUNDED_CURVE()
B_SPLINE_CURVE(2,(#433,#434,#435),.UNSPECIFIED.,.F.,.F.)
B_SPLINE_CURVE_WITH_KNOTS((3,3),(1.0138492673862,6.35202256676701),
 .UNSPECIFIED.)
CURVE()
GEOMETRIC_REPRESENTATION_ITEM()
RATIONAL_B_SPLINE_CURVE((1.0145114053582,1.04545881585951,1.))
REPRESENTATION_ITEM($)
);
#108=(
BOUNDED_CURVE()
B_SPLINE_CURVE(2,(#437,#438,#439),.UNSPECIFIED.,.F.,.F.)
B_SPLINE_CURVE_WITH_KNOTS((3,3),(6.35202256676704,11.6901958661479),
 .UNSPECIFIED.)
CURVE()
GEOMETRIC_REPRESENTATION_ITEM()
RATIONAL_B_SPLINE_CURVE((1.,1.04545881585954,1.01451140535821))
REPRESENTATION_ITEM($)
);
#109=(
BOUNDED_CURVE()
B_SPLINE_CURVE(2,(#441,#442,#443),.UNSPECIFIED.,.F.,.F.)
B_SPLINE_CURVE_WITH_KNOTS((3,3),(1.01384926738636,6.35202256676704),
 .UNSPECIFIED.)
CURVE()
GEOMETRIC_REPRESENTATION_ITEM()
RATIONAL_B_SPLINE_CURVE((1.01451140535815,1.04545881585933,1.))
REPRESENTATION_ITEM($)
);
#110=(
BOUNDED_CURVE()
B_SPLINE_CURVE(2,(#445,#446,#447),.UNSPECIFIED.,.F.,.F.)
B_SPLINE_CURVE_WITH_KNOTS((3,3),(6.35202256676699,11.6901958661479),
 .UNSPECIFIED.)
CURVE()
GEOMETRIC_REPRESENTATION_ITEM()
RATIONAL_B_SPLINE_CURVE((1.,1.04545881585966,1.01451140535825))
REPRESENTATION_ITEM($)
);
#111=(
BOUNDED_CURVE()
B_SPLINE_CURVE(2,(#449,#450,#451),.UNSPECIFIED.,.F.,.F.)
B_SPLINE_CURVE_WITH_KNOTS((3,3),(1.01384926738609,6.35202256676699),
 .UNSPECIFIED.)
CURVE()
GEOMETRIC_REPRESENTATION_ITEM()
RATIONAL_B_SPLINE_CURVE((1.01451140535825,1.04545881585966,1.))
REPRESENTATION_ITEM($)
);
#112=(
BOUNDED_CURVE()
B_SPLINE_CURVE(2,(#453,#454,#455),.UNSPECIFIED.,.F.,.F.)
B_SPLINE_CURVE_WITH_KNOTS((3,3),(6.352022566767,11.6901958661479),
 .UNSPECIFIED.)
CURVE()
GEOMETRIC_REPRESENTATION_ITEM()
RATIONAL_B_SPLINE_CURVE((1.,1.04545881585962,1.01451140535824))
REPRESENTATION_ITEM($)
);
#113=(
BOUNDED_CURVE()
B_SPLINE_CURVE(2,(#456,#457,#458),.UNSPECIFIED.,.F.,.F.)
B_SPLINE_CURVE_WITH_KNOTS((3,3),(1.01384926738621,6.352022566767),
 .UNSPECIFIED.)
CURVE()
GEOMETRIC_REPRESENTATION_ITEM()
RATIONAL_B_SPLINE_CURVE((1.0145114053582,1.04545881585949,1.))
REPRESENTATION_ITEM($)
);
#114=CIRCLE($,#273,8.49999999999996);
#115=CIRCLE($,#274,8.49999999999996);
#116=CIRCLE($,#276,6.60901701022522);
#117=CIRCLE($,#277,6.10810784417228);
#118=CIRCLE($,#279,8.29999999999998);
#119=CIRCLE($,#280,8.29999999999998);
#120=CIRCLE($,#282,11.);
#121=CIRCLE($,#283,11.);
#122=CIRCLE($,#286,5.94221722878863);
#123=VERTEX_POINT($,#387);
#124=VERTEX_POINT($,#388);
#125=VERTEX_POINT($,#390);
#126=VERTEX_POINT($,#396);
#127=VERTEX_POINT($,#398);
#128=VERTEX_POINT($,#401);
#129=VERTEX_POINT($,#403);
#130=VERTEX_POINT($,#406);
#131=VERTEX_POINT($,#408);
#132=VERTEX_POINT($,#411);
#133=VERTEX_POINT($,#412);
#134=VERTEX_POINT($,#416);
#135=VERTEX_POINT($,#420);
#136=VERTEX_POINT($,#424);
#137=VERTEX_POINT($,#428);
#138=VERTEX_POINT($,#432);
#139=VERTEX_POINT($,#436);
#140=VERTEX_POINT($,#440);
#141=VERTEX_POINT($,#444);
#142=VERTEX_POINT($,#448);
#143=VERTEX_POINT($,#452);
#144=VERTEX_POINT($,#460);
#145=VERTEX_POINT($,#465);
#146=VERTEX_POINT($,#467);
#147=VERTEX_POINT($,#471);
#148=VERTEX_POINT($,#475);
#149=VERTEX_POINT($,#479);
#150=VERTEX_POINT($,#483);
#151=EDGE_CURVE($,#123,#124,#114,.T.);
#152=EDGE_CURVE($,#124,#125,#101,.T.);
#153=EDGE_CURVE($,#124,#123,#115,.T.);
#154=EDGE_CURVE($,#126,#126,#116,.T.);
#155=EDGE_CURVE($,#127,#127,#117,.T.);
#156=EDGE_CURVE($,#128,#128,#118,.T.);
#157=EDGE_CURVE($,#129,#129,#119,.T.);
#158=EDGE_CURVE($,#130,#130,#120,.T.);
#159=EDGE_CURVE($,#131,#131,#121,.T.);
#160=EDGE_CURVE($,#132,#133,#102,.T.);
#161=EDGE_CURVE($,#134,#132,#103,.T.);
#162=EDGE_CURVE($,#135,#134,#104,.T.);
#163=EDGE_CURVE($,#136,#135,#105,.T.);
#164=EDGE_CURVE($,#137,#136,#106,.T.);
#165=EDGE_CURVE($,#138,#137,#107,.T.);
#166=EDGE_CURVE($,#139,#138,#108,.T.);
#167=EDGE_CURVE($,#140,#139,#109,.T.);
#168=EDGE_CURVE($,#141,#140,#110,.T.);
#169=EDGE_CURVE($,#142,#141,#111,.T.);
#170=EDGE_CURVE($,#143,#142,#112,.T.);
#171=EDGE_CURVE($,#133,#143,#113,.T.);
#172=EDGE_CURVE($,#144,#144,#122,.T.);
#173=EDGE_CURVE($,#138,#145,#12,.T.);
#174=EDGE_CURVE($,#145,#146,#13,.T.);
#175=EDGE_CURVE($,#140,#146,#14,.T.);
#176=EDGE_CURVE($,#136,#147,#15,.T.);
#177=EDGE_CURVE($,#147,#145,#16,.T.);
#178=EDGE_CURVE($,#148,#134,#17,.T.);
#179=EDGE_CURVE($,#148,#147,#18,.T.);
#180=EDGE_CURVE($,#133,#149,#19,.T.);
#181=EDGE_CURVE($,#149,#148,#20,.T.);
#182=EDGE_CURVE($,#146,#150,#21,.T.);
#183=EDGE_CURVE($,#150,#149,#22,.T.);
#184=EDGE_CURVE($,#142,#150,#23,.T.);
#185=ORIENTED_EDGE($,*,*,#151,.T.);
#186=ORIENTED_EDGE($,*,*,#152,.T.);
#187=ORIENTED_EDGE($,*,*,#152,.F.);
#188=ORIENTED_EDGE($,*,*,#153,.T.);
#189=ORIENTED_EDGE($,*,*,#154,.T.);
#190=ORIENTED_EDGE($,*,*,#155,.F.);
#191=ORIENTED_EDGE($,*,*,#156,.T.);
#192=ORIENTED_EDGE($,*,*,#157,.F.);
#193=ORIENTED_EDGE($,*,*,#158,.T.);
#194=ORIENTED_EDGE($,*,*,#159,.F.);
#195=ORIENTED_EDGE($,*,*,#160,.F.);
#196=ORIENTED_EDGE($,*,*,#161,.F.);
#197=ORIENTED_EDGE($,*,*,#162,.F.);
#198=ORIENTED_EDGE($,*,*,#163,.F.);
#199=ORIENTED_EDGE($,*,*,#164,.F.);
#200=ORIENTED_EDGE($,*,*,#165,.F.);
#201=ORIENTED_EDGE($,*,*,#166,.F.);
#202=ORIENTED_EDGE($,*,*,#167,.F.);
#203=ORIENTED_EDGE($,*,*,#168,.F.);
#204=ORIENTED_EDGE($,*,*,#169,.F.);
#205=ORIENTED_EDGE($,*,*,#170,.F.);
#206=ORIENTED_EDGE($,*,*,#171,.F.);
#207=ORIENTED_EDGE($,*,*,#158,.F.);
#208=ORIENTED_EDGE($,*,*,#172,.F.);
#209=ORIENTED_EDGE($,*,*,#155,.T.);
#210=ORIENTED_EDGE($,*,*,#159,.T.);
#211=ORIENTED_EDGE($,*,*,#156,.F.);
#212=ORIENTED_EDGE($,*,*,#157,.T.);
#213=ORIENTED_EDGE($,*,*,#154,.F.);
#214=ORIENTED_EDGE($,*,*,#166,.T.);
#215=ORIENTED_EDGE($,*,*,#173,.T.);
#216=ORIENTED_EDGE($,*,*,#174,.T.);
#217=ORIENTED_EDGE($,*,*,#175,.F.);
#218=ORIENTED_EDGE($,*,*,#167,.T.);
#219=ORIENTED_EDGE($,*,*,#164,.T.);
#220=ORIENTED_EDGE($,*,*,#176,.T.);
#221=ORIENTED_EDGE($,*,*,#177,.T.);
#222=ORIENTED_EDGE($,*,*,#173,.F.);
#223=ORIENTED_EDGE($,*,*,#165,.T.);
#224=ORIENTED_EDGE($,*,*,#162,.T.);
#225=ORIENTED_EDGE($,*,*,#178,.F.);
#226=ORIENTED_EDGE($,*,*,#179,.T.);
#227=ORIENTED_EDGE($,*,*,#176,.F.);
#228=ORIENTED_EDGE($,*,*,#163,.T.);
#229=ORIENTED_EDGE($,*,*,#160,.T.);
#230=ORIENTED_EDGE($,*,*,#180,.T.);
#231=ORIENTED_EDGE($,*,*,#181,.T.);
#232=ORIENTED_EDGE($,*,*,#178,.T.);
#233=ORIENTED_EDGE($,*,*,#161,.T.);
#234=ORIENTED_EDGE($,*,*,#182,.F.);
#235=ORIENTED_EDGE($,*,*,#174,.F.);
#236=ORIENTED_EDGE($,*,*,#177,.F.);
#237=ORIENTED_EDGE($,*,*,#179,.F.);
#238=ORIENTED_EDGE($,*,*,#181,.F.);
#239=ORIENTED_EDGE($,*,*,#183,.F.);
#240=ORIENTED_EDGE($,*,*,#151,.F.);
#241=ORIENTED_EDGE($,*,*,#153,.F.);
#242=ORIENTED_EDGE($,*,*,#172,.T.);
#243=ORIENTED_EDGE($,*,*,#168,.T.);
#244=ORIENTED_EDGE($,*,*,#175,.T.);
#245=ORIENTED_EDGE($,*,*,#182,.T.);
#246=ORIENTED_EDGE($,*,*,#184,.F.);
#247=ORIENTED_EDGE($,*,*,#169,.T.);
#248=ORIENTED_EDGE($,*,*,#170,.T.);
#249=ORIENTED_EDGE($,*,*,#184,.T.);
#250=ORIENTED_EDGE($,*,*,#183,.T.);
#251=ORIENTED_EDGE($,*,*,#180,.F.);
#252=ORIENTED_EDGE($,*,*,#171,.T.);
#253=(
BOUNDED_SURFACE()
B_SPLINE_SURFACE(2,2,((#360,#361,#362,#363,#364,#365,#366,#367,#368),(#369,
#370,#371,#372,#373,#374,#375,#376,#377),(#378,#379,#380,#381,#382,#383,
#384,#385,#386)),.UNSPECIFIED.,.F.,.T.,.F.)
B_SPLINE_SURFACE_WITH_KNOTS((3,3),(3,2,2,2,3),(-1.55819760314498,-1.03385934991342),
(-3.14159265358979,-1.5707963267949,0.,1.5707963267949,3.14159265358979),
 .UNSPECIFIED.)
GEOMETRIC_REPRESENTATION_ITEM()
RATIONAL_B_SPLINE_SURFACE(((1.,0.707106781186548,1.,0.707106781186548,1.,
0.707106781186548,1.,0.707106781186548,1.),(0.965830064819495,0.682944988307707,
0.965830064819495,0.682944988307707,0.965830064819495,0.682944988307707,
0.965830064819495,0.682944988307707,0.965830064819495),(1.,0.707106781186548,
1.,0.707106781186548,1.,0.707106781186548,1.,0.707106781186548,1.)))
REPRESENTATION_ITEM($)
SURFACE()
);
#254=ADVANCED_FACE($,(#61),#253,.F.);
#255=ADVANCED_FACE($,(#62,#52),#60,.T.);
#256=ADVANCED_FACE($,(#63,#53),#48,.T.);
#257=ADVANCED_FACE($,(#64,#54),#49,.T.);
#258=ADVANCED_FACE($,(#65,#55),#46,.T.);
#259=ADVANCED_FACE($,(#66,#56),#47,.F.);
#260=ADVANCED_FACE($,(#67,#57),#36,.T.);
#261=ADVANCED_FACE($,(#68,#58),#37,.T.);
#262=ADVANCED_FACE($,(#69),#38,.T.);
#263=ADVANCED_FACE($,(#70),#39,.T.);
#264=ADVANCED_FACE($,(#71),#40,.T.);
#265=ADVANCED_FACE($,(#72),#41,.T.);
#266=ADVANCED_FACE($,(#73,#59),#42,.T.);
#267=ADVANCED_FACE($,(#74),#43,.F.);
#268=ADVANCED_FACE($,(#75),#44,.T.);
#269=ADVANCED_FACE($,(#76),#45,.T.);
#270=CLOSED_SHELL($,(#254,#255,#256,#257,#258,#259,#260,#261,#262,#263,
#264,#265,#266,#267,#268,#269));
#271=MANIFOLD_SOLID_BREP('15F',#270);
#272=AXIS2_PLACEMENT_3D('placement',#359,#297,#298);
#273=AXIS2_PLACEMENT_3D($,#389,#299,#300);
#274=AXIS2_PLACEMENT_3D($,#394,#301,#302);
#275=AXIS2_PLACEMENT_3D($,#395,#303,#304);
#276=AXIS2_PLACEMENT_3D($,#397,#305,#306);
#277=AXIS2_PLACEMENT_3D($,#399,#307,#308);
#278=AXIS2_PLACEMENT_3D($,#400,#309,#310);
#279=AXIS2_PLACEMENT_3D($,#402,#311,#312);
#280=AXIS2_PLACEMENT_3D($,#404,#313,#314);
#281=AXIS2_PLACEMENT_3D($,#405,#315,#316);
#282=AXIS2_PLACEMENT_3D($,#407,#317,#318);
#283=AXIS2_PLACEMENT_3D($,#409,#319,#320);
#284=AXIS2_PLACEMENT_3D($,#410,#321,#322);
#285=AXIS2_PLACEMENT_3D($,#459,#323,#324);
#286=AXIS2_PLACEMENT_3D($,#461,#325,#326);
#287=AXIS2_PLACEMENT_3D($,#462,#327,#328);
#288=AXIS2_PLACEMENT_3D($,#463,#329,#330);
#289=AXIS2_PLACEMENT_3D($,#464,#331,#332);
#290=AXIS2_PLACEMENT_3D($,#470,#336,#337);
#291=AXIS2_PLACEMENT_3D($,#474,#340,#341);
#292=AXIS2_PLACEMENT_3D($,#478,#344,#345);
#293=AXIS2_PLACEMENT_3D($,#482,#348,#349);
#294=AXIS2_PLACEMENT_3D($,#486,#352,#353);
#295=AXIS2_PLACEMENT_3D($,#487,#354,#355);
#296=AXIS2_PLACEMENT_3D($,#489,#357,#358);
#297=DIRECTION('axis',(0.,0.,1.));
#298=DIRECTION('refdir',(1.,0.,0.));
#299=DIRECTION('center_axis',(1.,0.,0.));
#300=DIRECTION('ref_axis',(0.,1.,0.));
#301=DIRECTION('center_axis',(1.,0.,0.));
#302=DIRECTION('ref_axis',(0.,1.,0.));
#303=DIRECTION('center_axis',(-1.,1.83691E-016,0.));
#304=DIRECTION('ref_axis',(0.,0.,-1.));
#305=DIRECTION('center_axis',(-1.,0.,0.));
#306=DIRECTION('ref_axis',(0.,1.,0.));
#307=DIRECTION('center_axis',(-1.,0.,0.));
#308=DIRECTION('ref_axis',(0.,1.,0.));
#309=DIRECTION('center_axis',(-1.,1.83691E-016,0.));
#310=DIRECTION('ref_axis',(1.83691E-016,1.,0.));
#311=DIRECTION('center_axis',(-1.,0.,0.));
#312=DIRECTION('ref_axis',(0.,1.,0.));
#313=DIRECTION('center_axis',(-1.,0.,0.));
#314=DIRECTION('ref_axis',(0.,1.,0.));
#315=DIRECTION('center_axis',(-1.,1.83691E-016,0.));
#316=DIRECTION('ref_axis',(1.83691E-016,1.,0.));
#317=DIRECTION('center_axis',(-1.,0.,0.));
#318=DIRECTION('ref_axis',(0.,1.,0.));
#319=DIRECTION('center_axis',(-1.,0.,0.));
#320=DIRECTION('ref_axis',(0.,1.,0.));
#321=DIRECTION('center_axis',(-1.,1.83691E-016,0.));
#322=DIRECTION('ref_axis',(1.83691E-016,1.,0.));
#323=DIRECTION('center_axis',(-1.,1.83691E-016,0.));
#324=DIRECTION('ref_axis',(1.83691E-016,1.,0.));
#325=DIRECTION('center_axis',(-1.,0.,0.));
#326=DIRECTION('ref_axis',(0.,1.,0.));
#327=DIRECTION('center_axis',(-1.,0.,0.));
#328=DIRECTION('ref_axis',(0.,0.,-1.));
#329=DIRECTION('center_axis',(-1.,0.,0.));
#330=DIRECTION('ref_axis',(0.,0.,-1.));
#331=DIRECTION('center_axis',(1.59081E-016,0.866025403784438,-0.5));
#332=DIRECTION('ref_axis',(0.,0.5,0.866025403784439));
#333=DIRECTION($,(1.,0.,0.));
#334=DIRECTION($,(0.,-0.5,-0.866025403784438));
#335=DIRECTION($,(1.,0.,0.));
#336=DIRECTION('center_axis',(1.59081E-016,0.866025403784439,0.5));
#337=DIRECTION('ref_axis',(0.,-0.5,0.866025403784439));
#338=DIRECTION($,(1.,0.,0.));
#339=DIRECTION($,(0.,0.5,-0.866025403784439));
#340=DIRECTION('center_axis',(0.,0.,1.));
#341=DIRECTION('ref_axis',(0.,-1.,0.));
#342=DIRECTION($,(-1.,0.,0.));
#343=DIRECTION($,(0.,1.,0.));
#344=DIRECTION('center_axis',(-1.59081E-016,-0.866025403784439,0.5));
#345=DIRECTION('ref_axis',(0.,-0.5,-0.866025403784439));
#346=DIRECTION($,(1.,0.,0.));
#347=DIRECTION($,(0.,0.5,0.866025403784439));
#348=DIRECTION('center_axis',(1.,0.,0.));
#349=DIRECTION('ref_axis',(0.,0.,1.));
#350=DIRECTION($,(0.,-1.,0.));
#351=DIRECTION($,(0.,-0.5,0.866025403784439));
#352=DIRECTION('center_axis',(1.,0.,0.));
#353=DIRECTION('ref_axis',(0.,0.,1.));
#354=DIRECTION('center_axis',(0.,0.,-1.));
#355=DIRECTION('ref_axis',(0.,1.,0.));
#356=DIRECTION($,(1.,0.,0.));
#357=DIRECTION('center_axis',(-1.59081E-016,-0.866025403784439,-0.5));
#358=DIRECTION('ref_axis',(0.,0.5,-0.866025403784439));
#359=CARTESIAN_POINT('',(0.,0.,0.));
#360=CARTESIAN_POINT('Ctrl Pts',(22.,-3.04793290129332E-011,1.47707756675005E-010));
#361=CARTESIAN_POINT('Ctrl Pts',(22.,-3.04777811764873E-011,1.47707756675005E-010));
#362=CARTESIAN_POINT('Ctrl Pts',(22.,-3.04777811764873E-011,1.47706208838559E-010));
#363=CARTESIAN_POINT('Ctrl Pts',(22.,-3.04777811764872E-011,1.47704661002113E-010));
#364=CARTESIAN_POINT('Ctrl Pts',(22.,-3.04793290129332E-011,1.47704661002113E-010));
#365=CARTESIAN_POINT('Ctrl Pts',(22.,-3.04808768493791E-011,1.47704661002113E-010));
#366=CARTESIAN_POINT('Ctrl Pts',(22.,-3.04808768493791E-011,1.47706208838559E-010));
#367=CARTESIAN_POINT('Ctrl Pts',(22.,-3.04808768493791E-011,1.47707756675005E-010));
#368=CARTESIAN_POINT('Ctrl Pts',(22.,-3.04793290129332E-011,1.47707756675005E-010));
#369=CARTESIAN_POINT('Ctrl Pts',(21.9424019405975,-3.03715949682911E-011,
-4.57149577513705));
#370=CARTESIAN_POINT('Ctrl Pts',(21.9424019405889,-4.57149577531461,-4.57149577513705));
#371=CARTESIAN_POINT('Ctrl Pts',(21.9424019405478,-4.57149577531461,1.47188018137587E-010));
#372=CARTESIAN_POINT('Ctrl Pts',(21.9424019405067,-4.57149577531461,4.57149577543143));
#373=CARTESIAN_POINT('Ctrl Pts',(21.9424019405152,-3.03715949682911E-011,
4.57149577543143));
#374=CARTESIAN_POINT('Ctrl Pts',(21.9424019405238,4.57149577525387,4.57149577543143));
#375=CARTESIAN_POINT('Ctrl Pts',(21.9424019405649,4.57149577525387,1.47188018137741E-010));
#376=CARTESIAN_POINT('Ctrl Pts',(21.942401940606,4.57149577525387,-4.57149577513705));
#377=CARTESIAN_POINT('Ctrl Pts',(21.9424019405975,-3.03715949682911E-011,
-4.57149577513705));
#378=CARTESIAN_POINT('Ctrl Pts',(19.6038669901749,-2.59974922435907E-011,
-8.50000000009919));
#379=CARTESIAN_POINT('Ctrl Pts',(19.603866990159,-8.50000000025133,-8.50000000009919));
#380=CARTESIAN_POINT('Ctrl Pts',(19.6038669900825,-8.50000000025134,1.26148992226762E-010));
#381=CARTESIAN_POINT('Ctrl Pts',(19.603866990006,-8.50000000025133,8.50000000035148));
#382=CARTESIAN_POINT('Ctrl Pts',(19.6038669900219,-2.59974922435907E-011,
8.50000000035149));
#383=CARTESIAN_POINT('Ctrl Pts',(19.6038669900378,8.50000000019934,8.50000000035148));
#384=CARTESIAN_POINT('Ctrl Pts',(19.6038669901143,8.50000000019934,1.26148992227048E-010));
#385=CARTESIAN_POINT('Ctrl Pts',(19.6038669901908,8.50000000019934,-8.50000000009919));
#386=CARTESIAN_POINT('Ctrl Pts',(19.6038669901749,-2.59974922435907E-011,
-8.50000000009919));
#387=CARTESIAN_POINT('',(19.6038669902317,8.49999999999996,0.));
#388=CARTESIAN_POINT('',(19.6038669901749,-2.59974922435907E-011,-8.50000000009919));
#389=CARTESIAN_POINT('Origin',(19.6038669902317,1.387779E-016,0.));
#390=CARTESIAN_POINT('',(22.,1.387779E-016,0.));
#391=CARTESIAN_POINT('Ctrl Pts',(19.6038669901749,-2.59974922435907E-011,
-8.50000000009919));
#392=CARTESIAN_POINT('Ctrl Pts',(21.9424019405975,-3.03715949682911E-011,
-4.57149577513705));
#393=CARTESIAN_POINT('Ctrl Pts',(22.,-3.04793290129332E-011,1.47707756675005E-010));
#394=CARTESIAN_POINT('Origin',(19.6038669902317,1.387779E-016,0.));
#395=CARTESIAN_POINT('Origin',(2.39999999999986,0.,0.));
#396=CARTESIAN_POINT('',(0.,6.60901701022522,0.));
#397=CARTESIAN_POINT('Origin',(0.,0.,0.));
#398=CARTESIAN_POINT('',(2.39999999999921,-6.10810784417227,7.480028E-016));
#399=CARTESIAN_POINT('Origin',(2.39999999999921,0.,0.));
#400=CARTESIAN_POINT('Origin',(5.20000000000002,0.,0.));
#401=CARTESIAN_POINT('',(11.4,-8.29999999999997,1.016423E-015));
#402=CARTESIAN_POINT('Origin',(11.4,-1.396051E-015,0.));
#403=CARTESIAN_POINT('',(-1.776357E-015,-8.29999999999997,1.016423E-015));
#404=CARTESIAN_POINT('Origin',(0.,0.,0.));
#405=CARTESIAN_POINT('Origin',(12.3820508075688,0.,0.));
#406=CARTESIAN_POINT('',(13.3641016151377,-11.,1.347067E-015));
#407=CARTESIAN_POINT('Origin',(13.3641016151377,0.,0.));
#408=CARTESIAN_POINT('',(11.4,-11.,1.347067E-015));
#409=CARTESIAN_POINT('Origin',(11.4,0.,0.));
#410=CARTESIAN_POINT('Origin',(13.6320508075688,0.,0.));
#411=CARTESIAN_POINT('',(13.8999999999999,-7.79422863405995,4.5));
#412=CARTESIAN_POINT('',(13.5269330410535,-10.3923048454133,4.385381E-015));
#413=CARTESIAN_POINT('Ctrl Pts',(13.8999999999999,-7.79422863405995,4.5));
#414=CARTESIAN_POINT('Ctrl Pts',(13.9,-9.,2.4115427318801));
#415=CARTESIAN_POINT('Ctrl Pts',(13.5269330410535,-10.3923048454133,4.385381E-015));
#416=CARTESIAN_POINT('',(13.5269330410535,-5.19615242270663,9.00000000000001));
#417=CARTESIAN_POINT('Ctrl Pts',(13.5269330410535,-5.19615242270663,9.00000000000001));
#418=CARTESIAN_POINT('Ctrl Pts',(13.9,-6.58845726811993,6.5884572681199));
#419=CARTESIAN_POINT('Ctrl Pts',(13.8999999999999,-7.79422863405995,4.5));
#420=CARTESIAN_POINT('',(13.8999999999999,0.,9.));
#421=CARTESIAN_POINT('Ctrl Pts',(13.8999999999999,0.,9.));
#422=CARTESIAN_POINT('Ctrl Pts',(13.8999999999999,-2.41154273188019,9.));
#423=CARTESIAN_POINT('Ctrl Pts',(13.5269330410535,-5.19615242270663,9.00000000000001));
#424=CARTESIAN_POINT('',(13.5269330410535,5.19615242270663,9.));
#425=CARTESIAN_POINT('Ctrl Pts',(13.5269330410535,5.19615242270663,9.));
#426=CARTESIAN_POINT('Ctrl Pts',(13.9,2.41154273188016,9.));
#427=CARTESIAN_POINT('Ctrl Pts',(13.8999999999999,0.,9.));
#428=CARTESIAN_POINT('',(13.8999999999999,7.79422863405995,4.5));
#429=CARTESIAN_POINT('Ctrl Pts',(13.8999999999999,7.79422863405995,4.5));
#430=CARTESIAN_POINT('Ctrl Pts',(13.9,6.5884572681199,6.58845726811991));
#431=CARTESIAN_POINT('Ctrl Pts',(13.5269330410535,5.19615242270663,9.));
#432=CARTESIAN_POINT('',(13.5269330410535,10.3923048454133,-8.65974E-015));
#433=CARTESIAN_POINT('Ctrl Pts',(13.5269330410535,10.3923048454133,-8.65974E-015));
#434=CARTESIAN_POINT('Ctrl Pts',(13.8999999999999,9.,2.41154273188009));
#435=CARTESIAN_POINT('Ctrl Pts',(13.8999999999999,7.79422863405995,4.5));
#436=CARTESIAN_POINT('',(13.8999999999999,7.79422863405995,-4.50000000000001));
#437=CARTESIAN_POINT('Ctrl Pts',(13.8999999999999,7.79422863405995,-4.50000000000001));
#438=CARTESIAN_POINT('Ctrl Pts',(13.8999999999999,9.00000000000003,-2.4115427318801));
#439=CARTESIAN_POINT('Ctrl Pts',(13.5269330410535,10.3923048454133,-8.65974E-015));
#440=CARTESIAN_POINT('',(13.5269330410535,5.19615242270663,-9.));
#441=CARTESIAN_POINT('Ctrl Pts',(13.5269330410535,5.19615242270663,-9.00000000000001));
#442=CARTESIAN_POINT('Ctrl Pts',(13.8999999999999,6.58845726811995,-6.58845726811981));
#443=CARTESIAN_POINT('Ctrl Pts',(13.8999999999999,7.79422863405995,-4.50000000000001));
#444=CARTESIAN_POINT('',(13.8999999999999,0.,-9.));
#445=CARTESIAN_POINT('Ctrl Pts',(13.8999999999999,0.,-9.));
#446=CARTESIAN_POINT('Ctrl Pts',(13.8999999999999,2.41154273188019,-9.));
#447=CARTESIAN_POINT('Ctrl Pts',(13.5269330410535,5.19615242270663,-9.));
#448=CARTESIAN_POINT('',(13.5269330410535,-5.19615242270663,-9.));
#449=CARTESIAN_POINT('Ctrl Pts',(13.5269330410535,-5.19615242270663,-9.));
#450=CARTESIAN_POINT('Ctrl Pts',(13.9,-2.41154273188016,-8.99999999999999));
#451=CARTESIAN_POINT('Ctrl Pts',(13.8999999999999,0.,-9.));
#452=CARTESIAN_POINT('',(13.8999999999999,-7.79422863405995,-4.5));
#453=CARTESIAN_POINT('Ctrl Pts',(13.8999999999999,-7.79422863405995,-4.5));
#454=CARTESIAN_POINT('Ctrl Pts',(13.9,-6.58845726811987,-6.58845726811995));
#455=CARTESIAN_POINT('Ctrl Pts',(13.5269330410535,-5.19615242270663,-9.));
#456=CARTESIAN_POINT('Ctrl Pts',(13.5269330410535,-10.3923048454133,4.385381E-015));
#457=CARTESIAN_POINT('Ctrl Pts',(13.9,-9.00000000000003,-2.41154273188013));
#458=CARTESIAN_POINT('Ctrl Pts',(13.8999999999999,-7.79422863405995,-4.5));
#459=CARTESIAN_POINT('Origin',(9.58112825692496,0.,0.));
#460=CARTESIAN_POINT('',(11.9038669902317,-5.94221722878862,7.276877E-016));
#461=CARTESIAN_POINT('Origin',(11.9038669902317,0.,0.));
#462=CARTESIAN_POINT('Origin',(11.4,9.79999999999998,0.));
#463=CARTESIAN_POINT('Origin',(0.,7.45450850511261,0.));
#464=CARTESIAN_POINT('Origin',(13.9038669902317,10.3923048454133,-8.65974E-015));
#465=CARTESIAN_POINT('',(19.6038669902317,10.3923048454133,-8.65974E-015));
#466=CARTESIAN_POINT($,(13.5269330410535,10.3923048454133,-8.65974E-015));
#467=CARTESIAN_POINT('',(19.6038669902317,5.19615242270663,-9.));
#468=CARTESIAN_POINT($,(19.6038669902317,10.3923048454133,-8.65974E-015));
#469=CARTESIAN_POINT($,(13.5269330410535,5.19615242270663,-9.));
#470=CARTESIAN_POINT('Origin',(13.9038669902317,5.19615242270663,9.));
#471=CARTESIAN_POINT('',(19.6038669902317,5.19615242270663,9.));
#472=CARTESIAN_POINT($,(13.5269330410535,5.19615242270663,9.));
#473=CARTESIAN_POINT($,(19.6038669902317,5.19615242270663,9.));
#474=CARTESIAN_POINT('Origin',(13.9038669902317,-5.19615242270663,9.00000000000001));
#475=CARTESIAN_POINT('',(19.6038669902317,-5.19615242270663,9.00000000000001));
#476=CARTESIAN_POINT($,(19.6038669902317,-5.19615242270663,9.00000000000001));
#477=CARTESIAN_POINT($,(19.6038669902317,-5.19615242270663,9.00000000000001));
#478=CARTESIAN_POINT('Origin',(13.9038669902317,-10.3923048454133,4.385381E-015));
#479=CARTESIAN_POINT('',(19.6038669902317,-10.3923048454133,4.385381E-015));
#480=CARTESIAN_POINT($,(13.5269330410535,-10.3923048454133,4.385381E-015));
#481=CARTESIAN_POINT($,(19.6038669902317,-10.3923048454133,4.385381E-015));
#482=CARTESIAN_POINT('Origin',(19.6038669902317,0.,1.554312E-015));
#483=CARTESIAN_POINT('',(19.6038669902317,-5.19615242270663,-8.99999999999999));
#484=CARTESIAN_POINT($,(19.6038669902317,5.19615242270663,-9.));
#485=CARTESIAN_POINT($,(19.6038669902317,-5.19615242270663,-8.99999999999999));
#486=CARTESIAN_POINT('Origin',(11.9038669902317,0.,1.554312E-015));
#487=CARTESIAN_POINT('Origin',(13.9038669902317,5.19615242270663,-9.));
#488=CARTESIAN_POINT($,(13.5269330410535,-5.19615242270663,-9.));
#489=CARTESIAN_POINT('Origin',(13.9038669902317,-5.19615242270663,-8.99999999999999));
#490=UNCERTAINTY_MEASURE_WITH_UNIT(LENGTH_MEASURE(0.01),#492,
'DISTANCE_ACCURACY_VALUE',
'Maximum model space distance between geometric entities at asserted c
onnectivities');
#491=(
GEOMETRIC_REPRESENTATION_CONTEXT(3)
GLOBAL_UNCERTAINTY_ASSIGNED_CONTEXT((#490))
GLOBAL_UNIT_ASSIGNED_CONTEXT((#492,#495,#493))
REPRESENTATION_CONTEXT('','3D')
);
#492=(
LENGTH_UNIT()
NAMED_UNIT(*)
SI_UNIT(.MILLI.,.METRE.)
);
#493=(
NAMED_UNIT(*)
SI_UNIT($,.STERADIAN.)
SOLID_ANGLE_UNIT()
);
#494=DIMENSIONAL_EXPONENTS(0.,0.,0.,0.,0.,0.,0.);
#495=(
CONVERSION_BASED_UNIT('degree',#497)
NAMED_UNIT(#494)
PLANE_ANGLE_UNIT()
);
#496=(
NAMED_UNIT(*)
PLANE_ANGLE_UNIT()
SI_UNIT($,.RADIAN.)
);
#497=PLANE_ANGLE_MEASURE_WITH_UNIT(PLANE_ANGLE_MEASURE(0.01745329252),#496);
#498=SHAPE_DEFINITION_REPRESENTATION(#499,#500);
#499=PRODUCT_DEFINITION_SHAPE('',$,#502);
#500=SHAPE_REPRESENTATION('',(#272),#491);
#501=PRODUCT_DEFINITION_CONTEXT('3D Mechanical Parts',#505,'design');
#502=PRODUCT_DEFINITION('PFV038','PFV038',#503,#501);
#503=PRODUCT_DEFINITION_FORMATION('',$,#507);
#504=APPLICATION_PROTOCOL_DEFINITION('international standard',
'automotive_design',2009,#505);
#505=APPLICATION_CONTEXT(
'Core Data for Automotive Mechanical Design Process');
#506=PRODUCT_CONTEXT('3D Mechanical Parts',#505,'mechanical');
#507=PRODUCT('PFV038','PFV038',$,(#506));
#508=PRESENTATION_STYLE_ASSIGNMENT((#510));
#509=PRESENTATION_STYLE_ASSIGNMENT((#511));
#510=SURFACE_STYLE_USAGE(.BOTH.,#512);
#511=SURFACE_STYLE_USAGE(.BOTH.,#513);
#512=SURFACE_SIDE_STYLE($,(#514));
#513=SURFACE_SIDE_STYLE($,(#515));
#514=SURFACE_STYLE_FILL_AREA(#516);
#515=SURFACE_STYLE_FILL_AREA(#517);
#516=FILL_AREA_STYLE($,(#518));
#517=FILL_AREA_STYLE($,(#519));
#518=FILL_AREA_STYLE_COLOUR($,#520);
#519=FILL_AREA_STYLE_COLOUR($,#521);
#520=COLOUR_RGB('',0.509803921568627,0.509803921568627,0.588235294117647);
#521=COLOUR_RGB('',1.,0.,0.);
ENDSEC;
END-ISO-10303-21;
