ISO-10303-21;
HEADER;
FILE_DESCRIPTION( ( '' ), '1' );
FILE_NAME( '//se01002/users/anro/AGRU_25705002011_PE_100_schwarz_Rohr__5m_20X2_0_SDR11__ISO_S-5_05.stp', '2017-12-11T09:33:46', ( '' ), ( '' ), ' ', ' ', ' ' );
FILE_SCHEMA( ( 'automotive_design' ) );
ENDSEC;
DATA;
#1 = MECHANICAL_DESIGN_GEOMETRIC_PRESENTATION_REPRESENTATION( ' ', ( #10, #11, #12, #13, #14, #15, #16, #17, #18, #19, #20, #21, #22, #23, #24, #25, #26, #27, #28, #29, #30, #31, #32, #33, #34, #35, #36 ), #6 );
#2 = PRODUCT_DEFINITION_CONTEXT( '', #37, 'design' );
#3 = APPLICATION_PROTOCOL_DEFINITION( 'INTERNATIONAL STANDARD', 'automotive_design', 1994, #37 );
#4 = PRODUCT_CATEGORY_RELATIONSHIP( 'NONE', 'NONE', #38, #39 );
#5 = SHAPE_DEFINITION_REPRESENTATION( #40, #41 );
#6 =  ( GEOMETRIC_REPRESENTATION_CONTEXT( 3 )GLOBAL_UNCERTAINTY_ASSIGNED_CONTEXT( ( #44 ) )GLOBAL_UNIT_ASSIGNED_CONTEXT( ( #46, #47, #48 ) )REPRESENTATION_CONTEXT( 'NONE', 'WORKSPACE' ) );
#10 = STYLED_ITEM( '', ( #50 ), #51 );
#11 = STYLED_ITEM( '', ( #52 ), #53 );
#12 = STYLED_ITEM( '', ( #54 ), #55 );
#13 = STYLED_ITEM( '', ( #56 ), #57 );
#14 = STYLED_ITEM( '', ( #58 ), #59 );
#15 = STYLED_ITEM( '', ( #60 ), #61 );
#16 = STYLED_ITEM( '', ( #62 ), #63 );
#17 = STYLED_ITEM( '', ( #64 ), #65 );
#18 = STYLED_ITEM( '', ( #66 ), #67 );
#19 = STYLED_ITEM( '', ( #68 ), #69 );
#20 = STYLED_ITEM( '', ( #70 ), #71 );
#21 = STYLED_ITEM( '', ( #72 ), #73 );
#22 = STYLED_ITEM( '', ( #74 ), #75 );
#23 = STYLED_ITEM( '', ( #76 ), #77 );
#24 = STYLED_ITEM( '', ( #78 ), #79 );
#25 = STYLED_ITEM( '', ( #80 ), #81 );
#26 = STYLED_ITEM( '', ( #82 ), #83 );
#27 = STYLED_ITEM( '', ( #84 ), #85 );
#28 = STYLED_ITEM( '', ( #86 ), #87 );
#29 = STYLED_ITEM( '', ( #88 ), #89 );
#30 = STYLED_ITEM( '', ( #90 ), #91 );
#31 = STYLED_ITEM( '', ( #92 ), #93 );
#32 = STYLED_ITEM( '', ( #94 ), #95 );
#33 = STYLED_ITEM( '', ( #96 ), #97 );
#34 = STYLED_ITEM( '', ( #98 ), #99 );
#35 = STYLED_ITEM( '', ( #100 ), #101 );
#36 = STYLED_ITEM( '', ( #102 ), #103 );
#37 = APPLICATION_CONTEXT( ' ' );
#38 = PRODUCT_CATEGORY( 'part', 'NONE' );
#39 = PRODUCT_RELATED_PRODUCT_CATEGORY( 'detail', ' ', ( #104 ) );
#40 = PRODUCT_DEFINITION_SHAPE( 'NONE', 'NONE', #105 );
#41 = ADVANCED_BREP_SHAPE_REPRESENTATION( '1', ( #97, #106 ), #6 );
#44 = UNCERTAINTY_MEASURE_WITH_UNIT( LENGTH_MEASURE( 1.00000000000000E-006 ), #46, '', '' );
#46 =  ( CONVERSION_BASED_UNIT( 'MILLIMETRE', #109 )LENGTH_UNIT(  )NAMED_UNIT( #112 ) );
#47 =  ( NAMED_UNIT( #114 )PLANE_ANGLE_UNIT(  )SI_UNIT( $, .RADIAN. ) );
#48 =  ( NAMED_UNIT( #114 )SOLID_ANGLE_UNIT(  )SI_UNIT( $, .STERADIAN. ) );
#50 = PRESENTATION_STYLE_ASSIGNMENT( ( #120 ) );
#51 = EDGE_CURVE( '', #81, #65, #121, .T. );
#52 = PRESENTATION_STYLE_ASSIGNMENT( ( #122 ) );
#53 = ADVANCED_FACE( '', ( #123, #124 ), #125, .T. );
#54 = PRESENTATION_STYLE_ASSIGNMENT( ( #126 ) );
#55 = VERTEX_POINT( '', #127 );
#56 = PRESENTATION_STYLE_ASSIGNMENT( ( #128 ) );
#57 = EDGE_CURVE( '', #61, #101, #129, .T. );
#58 = PRESENTATION_STYLE_ASSIGNMENT( ( #130 ) );
#59 = ADVANCED_FACE( '', ( #131 ), #132, .T. );
#60 = PRESENTATION_STYLE_ASSIGNMENT( ( #133 ) );
#61 = VERTEX_POINT( '', #134 );
#62 = PRESENTATION_STYLE_ASSIGNMENT( ( #135 ) );
#63 = ADVANCED_FACE( '', ( #136 ), #137, .T. );
#64 = PRESENTATION_STYLE_ASSIGNMENT( ( #138 ) );
#65 = VERTEX_POINT( '', #139 );
#66 = PRESENTATION_STYLE_ASSIGNMENT( ( #140 ) );
#67 = ADVANCED_FACE( '', ( #141 ), #142, .F. );
#68 = PRESENTATION_STYLE_ASSIGNMENT( ( #143 ) );
#69 = EDGE_CURVE( '', #103, #89, #144, .T. );
#70 = PRESENTATION_STYLE_ASSIGNMENT( ( #145 ) );
#71 = EDGE_CURVE( '', #55, #87, #146, .T. );
#72 = PRESENTATION_STYLE_ASSIGNMENT( ( #147 ) );
#73 = ADVANCED_FACE( '', ( #148 ), #149, .F. );
#74 = PRESENTATION_STYLE_ASSIGNMENT( ( #150 ) );
#75 = EDGE_CURVE( '', #89, #101, #151, .T. );
#76 = PRESENTATION_STYLE_ASSIGNMENT( ( #152 ) );
#77 = ADVANCED_FACE( '', ( #153, #154 ), #155, .F. );
#78 = PRESENTATION_STYLE_ASSIGNMENT( ( #156 ) );
#79 = EDGE_CURVE( '', #55, #65, #157, .T. );
#80 = PRESENTATION_STYLE_ASSIGNMENT( ( #158 ) );
#81 = VERTEX_POINT( '', #159 );
#82 = PRESENTATION_STYLE_ASSIGNMENT( ( #160 ) );
#83 = EDGE_CURVE( '', #101, #61, #161, .T. );
#84 = PRESENTATION_STYLE_ASSIGNMENT( ( #162 ) );
#85 = EDGE_CURVE( '', #65, #81, #163, .T. );
#86 = PRESENTATION_STYLE_ASSIGNMENT( ( #164 ) );
#87 = VERTEX_POINT( '', #165 );
#88 = PRESENTATION_STYLE_ASSIGNMENT( ( #166 ) );
#89 = VERTEX_POINT( '', #167 );
#90 = PRESENTATION_STYLE_ASSIGNMENT( ( #168 ) );
#91 = EDGE_CURVE( '', #61, #103, #169, .T. );
#92 = PRESENTATION_STYLE_ASSIGNMENT( ( #170 ) );
#93 = EDGE_CURVE( '', #87, #55, #171, .T. );
#94 = PRESENTATION_STYLE_ASSIGNMENT( ( #172 ) );
#95 = EDGE_CURVE( '', #81, #87, #173, .T. );
#96 = PRESENTATION_STYLE_ASSIGNMENT( ( #174 ) );
#97 = MANIFOLD_SOLID_BREP( '1', #175 );
#98 = PRESENTATION_STYLE_ASSIGNMENT( ( #176 ) );
#99 = EDGE_CURVE( '', #89, #103, #177, .T. );
#100 = PRESENTATION_STYLE_ASSIGNMENT( ( #178 ) );
#101 = VERTEX_POINT( '', #179 );
#102 = PRESENTATION_STYLE_ASSIGNMENT( ( #180 ) );
#103 = VERTEX_POINT( '', #181 );
#104 = PRODUCT( '1', '1', 'PART-1-DESC', ( #182 ) );
#105 = PRODUCT_DEFINITION( 'NONE', 'NONE', #183, #2 );
#106 = AXIS2_PLACEMENT_3D( '', #184, #185, #186 );
#109 = LENGTH_MEASURE_WITH_UNIT( LENGTH_MEASURE( 1.00000000000000 ), #187 );
#112 = DIMENSIONAL_EXPONENTS( 1.00000000000000, 0.000000000000000, 0.000000000000000, 0.000000000000000, 0.000000000000000, 0.000000000000000, 0.000000000000000 );
#114 = DIMENSIONAL_EXPONENTS( 0.000000000000000, 0.000000000000000, 0.000000000000000, 0.000000000000000, 0.000000000000000, 0.000000000000000, 0.000000000000000 );
#120 = CURVE_STYLE( '', #188, POSITIVE_LENGTH_MEASURE( 1.00000000000000E-006 ), #189 );
#121 = CIRCLE( '', #190, 10.0000000000000 );
#122 = SURFACE_STYLE_USAGE( .BOTH., #191 );
#123 = FACE_OUTER_BOUND( '', #192, .T. );
#124 = FACE_BOUND( '', #193, .T. );
#125 = PLANE( '', #194 );
#126 = POINT_STYLE( ' ', #195, POSITIVE_LENGTH_MEASURE( 1.00000000000000E-006 ), #196 );
#127 = CARTESIAN_POINT( '', ( 5000.00000000000, 1.22460635382238E-015, 10.0000000000000 ) );
#128 = CURVE_STYLE( '', #197, POSITIVE_LENGTH_MEASURE( 1.00000000000000E-006 ), #198 );
#129 = CIRCLE( '', #199, 8.00000000000000 );
#130 = SURFACE_STYLE_USAGE( .BOTH., #200 );
#131 = FACE_OUTER_BOUND( '', #201, .T. );
#132 = CYLINDRICAL_SURFACE( '', #202, 10.0000000000000 );
#133 = POINT_STYLE( ' ', #203, POSITIVE_LENGTH_MEASURE( 1.00000000000000E-006 ), #204 );
#134 = CARTESIAN_POINT( '', ( 5000.00000000000, 9.79685083057902E-016, 8.00000000000000 ) );
#135 = SURFACE_STYLE_USAGE( .BOTH., #205 );
#136 = FACE_OUTER_BOUND( '', #206, .T. );
#137 = CYLINDRICAL_SURFACE( '', #207, 10.0000000000000 );
#138 = POINT_STYLE( ' ', #208, POSITIVE_LENGTH_MEASURE( 1.00000000000000E-006 ), #209 );
#139 = CARTESIAN_POINT( '', ( 0.000000000000000, 1.22460635382238E-015, 10.0000000000000 ) );
#140 = SURFACE_STYLE_USAGE( .BOTH., #210 );
#141 = FACE_OUTER_BOUND( '', #211, .T. );
#142 = CYLINDRICAL_SURFACE( '', #212, 8.00000000000000 );
#143 = CURVE_STYLE( '', #213, POSITIVE_LENGTH_MEASURE( 1.00000000000000E-006 ), #214 );
#144 = CIRCLE( '', #215, 8.00000000000000 );
#145 = CURVE_STYLE( '', #216, POSITIVE_LENGTH_MEASURE( 1.00000000000000E-006 ), #217 );
#146 = CIRCLE( '', #218, 10.0000000000000 );
#147 = SURFACE_STYLE_USAGE( .BOTH., #219 );
#148 = FACE_OUTER_BOUND( '', #220, .T. );
#149 = CYLINDRICAL_SURFACE( '', #221, 8.00000000000000 );
#150 = CURVE_STYLE( '', #222, POSITIVE_LENGTH_MEASURE( 1.00000000000000E-006 ), #223 );
#151 = LINE( '', #224, #225 );
#152 = SURFACE_STYLE_USAGE( .BOTH., #226 );
#153 = FACE_OUTER_BOUND( '', #227, .T. );
#154 = FACE_BOUND( '', #228, .T. );
#155 = PLANE( '', #229 );
#156 = CURVE_STYLE( '', #230, POSITIVE_LENGTH_MEASURE( 1.00000000000000E-006 ), #231 );
#157 = LINE( '', #232, #233 );
#158 = POINT_STYLE( ' ', #234, POSITIVE_LENGTH_MEASURE( 1.00000000000000E-006 ), #235 );
#159 = CARTESIAN_POINT( '', ( 0.000000000000000, 0.000000000000000, -10.0000000000000 ) );
#160 = CURVE_STYLE( '', #236, POSITIVE_LENGTH_MEASURE( 1.00000000000000E-006 ), #237 );
#161 = CIRCLE( '', #238, 8.00000000000000 );
#162 = CURVE_STYLE( '', #239, POSITIVE_LENGTH_MEASURE( 1.00000000000000E-006 ), #240 );
#163 = CIRCLE( '', #241, 10.0000000000000 );
#164 = POINT_STYLE( ' ', #242, POSITIVE_LENGTH_MEASURE( 1.00000000000000E-006 ), #243 );
#165 = CARTESIAN_POINT( '', ( 5000.00000000000, 0.000000000000000, -10.0000000000000 ) );
#166 = POINT_STYLE( ' ', #244, POSITIVE_LENGTH_MEASURE( 1.00000000000000E-006 ), #245 );
#167 = CARTESIAN_POINT( '', ( 0.000000000000000, 0.000000000000000, -8.00000000000000 ) );
#168 = CURVE_STYLE( '', #246, POSITIVE_LENGTH_MEASURE( 1.00000000000000E-006 ), #247 );
#169 = LINE( '', #248, #249 );
#170 = CURVE_STYLE( '', #250, POSITIVE_LENGTH_MEASURE( 1.00000000000000E-006 ), #251 );
#171 = CIRCLE( '', #252, 10.0000000000000 );
#172 = CURVE_STYLE( '', #253, POSITIVE_LENGTH_MEASURE( 1.00000000000000E-006 ), #254 );
#173 = LINE( '', #255, #256 );
#174 = SURFACE_STYLE_USAGE( .BOTH., #257 );
#175 = CLOSED_SHELL( '', ( #63, #73, #67, #59, #53, #77 ) );
#176 = CURVE_STYLE( '', #258, POSITIVE_LENGTH_MEASURE( 1.00000000000000E-006 ), #259 );
#177 = CIRCLE( '', #260, 8.00000000000000 );
#178 = POINT_STYLE( ' ', #261, POSITIVE_LENGTH_MEASURE( 1.00000000000000E-006 ), #262 );
#179 = CARTESIAN_POINT( '', ( 5000.00000000000, 0.000000000000000, -8.00000000000000 ) );
#180 = POINT_STYLE( ' ', #263, POSITIVE_LENGTH_MEASURE( 1.00000000000000E-006 ), #264 );
#181 = CARTESIAN_POINT( '', ( 0.000000000000000, 9.79685083057902E-016, 8.00000000000000 ) );
#182 = PRODUCT_CONTEXT( '', #37, 'mechanical' );
#183 = PRODUCT_DEFINITION_FORMATION_WITH_SPECIFIED_SOURCE( ' ', 'NONE', #104, .NOT_KNOWN. );
#184 = CARTESIAN_POINT( '', ( 0.000000000000000, 0.000000000000000, 0.000000000000000 ) );
#185 = DIRECTION( '', ( 0.000000000000000, 0.000000000000000, 1.00000000000000 ) );
#186 = DIRECTION( '', ( 1.00000000000000, 0.000000000000000, 0.000000000000000 ) );
#187 =  ( NAMED_UNIT( #112 )LENGTH_UNIT(  )SI_UNIT( .MILLI., .METRE. ) );
#188 = DRAUGHTING_PRE_DEFINED_CURVE_FONT( 'continuous' );
#189 = COLOUR_RGB( '', 0.689999997615810, 0.689999997615810, 0.689999997615810 );
#190 = AXIS2_PLACEMENT_3D( '', #266, #267, #268 );
#191 = SURFACE_SIDE_STYLE( '', ( #269 ) );
#192 = EDGE_LOOP( '', ( #270, #271 ) );
#193 = EDGE_LOOP( '', ( #272, #273 ) );
#194 = AXIS2_PLACEMENT_3D( '', #274, #275, #276 );
#195 = PRE_DEFINED_MARKER( '' );
#196 = COLOUR_RGB( '', 0.689999997615810, 0.689999997615810, 0.689999997615810 );
#197 = DRAUGHTING_PRE_DEFINED_CURVE_FONT( 'continuous' );
#198 = COLOUR_RGB( '', 0.689999997615810, 0.689999997615810, 0.689999997615810 );
#199 = AXIS2_PLACEMENT_3D( '', #277, #278, #279 );
#200 = SURFACE_SIDE_STYLE( '', ( #280 ) );
#201 = EDGE_LOOP( '', ( #281, #282, #283, #284 ) );
#202 = AXIS2_PLACEMENT_3D( '', #285, #286, #287 );
#203 = PRE_DEFINED_MARKER( '' );
#204 = COLOUR_RGB( '', 0.689999997615810, 0.689999997615810, 0.689999997615810 );
#205 = SURFACE_SIDE_STYLE( '', ( #288 ) );
#206 = EDGE_LOOP( '', ( #289, #290, #291, #292 ) );
#207 = AXIS2_PLACEMENT_3D( '', #293, #294, #295 );
#208 = PRE_DEFINED_MARKER( '' );
#209 = COLOUR_RGB( '', 0.689999997615810, 0.689999997615810, 0.689999997615810 );
#210 = SURFACE_SIDE_STYLE( '', ( #296 ) );
#211 = EDGE_LOOP( '', ( #297, #298, #299, #300 ) );
#212 = AXIS2_PLACEMENT_3D( '', #301, #302, #303 );
#213 = DRAUGHTING_PRE_DEFINED_CURVE_FONT( 'continuous' );
#214 = COLOUR_RGB( '', 0.689999997615810, 0.689999997615810, 0.689999997615810 );
#215 = AXIS2_PLACEMENT_3D( '', #304, #305, #306 );
#216 = DRAUGHTING_PRE_DEFINED_CURVE_FONT( 'continuous' );
#217 = COLOUR_RGB( '', 0.689999997615810, 0.689999997615810, 0.689999997615810 );
#218 = AXIS2_PLACEMENT_3D( '', #307, #308, #309 );
#219 = SURFACE_SIDE_STYLE( '', ( #310 ) );
#220 = EDGE_LOOP( '', ( #311, #312, #313, #314 ) );
#221 = AXIS2_PLACEMENT_3D( '', #315, #316, #317 );
#222 = DRAUGHTING_PRE_DEFINED_CURVE_FONT( 'continuous' );
#223 = COLOUR_RGB( '', 0.689999997615810, 0.689999997615810, 0.689999997615810 );
#224 = CARTESIAN_POINT( '', ( 0.000000000000000, -9.79685083057902E-016, -8.00000000000000 ) );
#225 = VECTOR( '', #318, 1.00000000000000 );
#226 = SURFACE_SIDE_STYLE( '', ( #319 ) );
#227 = EDGE_LOOP( '', ( #320, #321 ) );
#228 = EDGE_LOOP( '', ( #322, #323 ) );
#229 = AXIS2_PLACEMENT_3D( '', #324, #325, #326 );
#230 = DRAUGHTING_PRE_DEFINED_CURVE_FONT( 'continuous' );
#231 = COLOUR_RGB( '', 0.689999997615810, 0.689999997615810, 0.689999997615810 );
#232 = CARTESIAN_POINT( '', ( 0.000000000000000, 1.22460635382238E-015, 10.0000000000000 ) );
#233 = VECTOR( '', #327, 1.00000000000000 );
#234 = PRE_DEFINED_MARKER( '' );
#235 = COLOUR_RGB( '', 0.689999997615810, 0.689999997615810, 0.689999997615810 );
#236 = DRAUGHTING_PRE_DEFINED_CURVE_FONT( 'continuous' );
#237 = COLOUR_RGB( '', 0.689999997615810, 0.689999997615810, 0.689999997615810 );
#238 = AXIS2_PLACEMENT_3D( '', #328, #329, #330 );
#239 = DRAUGHTING_PRE_DEFINED_CURVE_FONT( 'continuous' );
#240 = COLOUR_RGB( '', 0.689999997615810, 0.689999997615810, 0.689999997615810 );
#241 = AXIS2_PLACEMENT_3D( '', #331, #332, #333 );
#242 = PRE_DEFINED_MARKER( '' );
#243 = COLOUR_RGB( '', 0.689999997615810, 0.689999997615810, 0.689999997615810 );
#244 = PRE_DEFINED_MARKER( '' );
#245 = COLOUR_RGB( '', 0.689999997615810, 0.689999997615810, 0.689999997615810 );
#246 = DRAUGHTING_PRE_DEFINED_CURVE_FONT( 'continuous' );
#247 = COLOUR_RGB( '', 0.689999997615810, 0.689999997615810, 0.689999997615810 );
#248 = CARTESIAN_POINT( '', ( 0.000000000000000, 9.79685083057902E-016, 8.00000000000000 ) );
#249 = VECTOR( '', #334, 1.00000000000000 );
#250 = DRAUGHTING_PRE_DEFINED_CURVE_FONT( 'continuous' );
#251 = COLOUR_RGB( '', 0.689999997615810, 0.689999997615810, 0.689999997615810 );
#252 = AXIS2_PLACEMENT_3D( '', #335, #336, #337 );
#253 = DRAUGHTING_PRE_DEFINED_CURVE_FONT( 'continuous' );
#254 = COLOUR_RGB( '', 0.689999997615810, 0.689999997615810, 0.689999997615810 );
#255 = CARTESIAN_POINT( '', ( 0.000000000000000, -1.22460635382238E-015, -10.0000000000000 ) );
#256 = VECTOR( '', #338, 1.00000000000000 );
#257 = SURFACE_SIDE_STYLE( '', ( #339 ) );
#258 = DRAUGHTING_PRE_DEFINED_CURVE_FONT( 'continuous' );
#259 = COLOUR_RGB( '', 0.689999997615810, 0.689999997615810, 0.689999997615810 );
#260 = AXIS2_PLACEMENT_3D( '', #340, #341, #342 );
#261 = PRE_DEFINED_MARKER( '' );
#262 = COLOUR_RGB( '', 0.689999997615810, 0.689999997615810, 0.689999997615810 );
#263 = PRE_DEFINED_MARKER( '' );
#264 = COLOUR_RGB( '', 0.689999997615810, 0.689999997615810, 0.689999997615810 );
#266 = CARTESIAN_POINT( '', ( 0.000000000000000, 0.000000000000000, 0.000000000000000 ) );
#267 = DIRECTION( '', ( 1.00000000000000, -0.000000000000000, 0.000000000000000 ) );
#268 = DIRECTION( '', ( 0.000000000000000, 0.000000000000000, -1.00000000000000 ) );
#269 = SURFACE_STYLE_FILL_AREA( #343 );
#270 = ORIENTED_EDGE( '', *, *, #93, .F. );
#271 = ORIENTED_EDGE( '', *, *, #71, .F. );
#272 = ORIENTED_EDGE( '', *, *, #83, .F. );
#273 = ORIENTED_EDGE( '', *, *, #57, .F. );
#274 = CARTESIAN_POINT( '', ( 5000.00000000000, 0.000000000000000, 0.000000000000000 ) );
#275 = DIRECTION( '', ( 1.00000000000000, 0.000000000000000, 0.000000000000000 ) );
#276 = DIRECTION( '', ( 0.000000000000000, 0.000000000000000, -1.00000000000000 ) );
#277 = CARTESIAN_POINT( '', ( 5000.00000000000, 0.000000000000000, 0.000000000000000 ) );
#278 = DIRECTION( '', ( 1.00000000000000, 0.000000000000000, 0.000000000000000 ) );
#279 = DIRECTION( '', ( 0.000000000000000, 0.000000000000000, -1.00000000000000 ) );
#280 = SURFACE_STYLE_FILL_AREA( #344 );
#281 = ORIENTED_EDGE( '', *, *, #95, .T. );
#282 = ORIENTED_EDGE( '', *, *, #93, .T. );
#283 = ORIENTED_EDGE( '', *, *, #79, .T. );
#284 = ORIENTED_EDGE( '', *, *, #85, .T. );
#285 = CARTESIAN_POINT( '', ( 0.000000000000000, 0.000000000000000, 0.000000000000000 ) );
#286 = DIRECTION( '', ( -1.00000000000000, -0.000000000000000, -0.000000000000000 ) );
#287 = DIRECTION( '', ( 0.000000000000000, 0.000000000000000, -1.00000000000000 ) );
#288 = SURFACE_STYLE_FILL_AREA( #345 );
#289 = ORIENTED_EDGE( '', *, *, #95, .F. );
#290 = ORIENTED_EDGE( '', *, *, #51, .T. );
#291 = ORIENTED_EDGE( '', *, *, #79, .F. );
#292 = ORIENTED_EDGE( '', *, *, #71, .T. );
#293 = CARTESIAN_POINT( '', ( 0.000000000000000, 0.000000000000000, 0.000000000000000 ) );
#294 = DIRECTION( '', ( -1.00000000000000, -0.000000000000000, -0.000000000000000 ) );
#295 = DIRECTION( '', ( 0.000000000000000, 0.000000000000000, -1.00000000000000 ) );
#296 = SURFACE_STYLE_FILL_AREA( #346 );
#297 = ORIENTED_EDGE( '', *, *, #75, .T. );
#298 = ORIENTED_EDGE( '', *, *, #83, .T. );
#299 = ORIENTED_EDGE( '', *, *, #91, .T. );
#300 = ORIENTED_EDGE( '', *, *, #99, .F. );
#301 = CARTESIAN_POINT( '', ( 0.000000000000000, 0.000000000000000, 0.000000000000000 ) );
#302 = DIRECTION( '', ( -1.00000000000000, -0.000000000000000, -0.000000000000000 ) );
#303 = DIRECTION( '', ( 0.000000000000000, 0.000000000000000, -1.00000000000000 ) );
#304 = CARTESIAN_POINT( '', ( 0.000000000000000, 0.000000000000000, 0.000000000000000 ) );
#305 = DIRECTION( '', ( 1.00000000000000, -0.000000000000000, 0.000000000000000 ) );
#306 = DIRECTION( '', ( 0.000000000000000, 0.000000000000000, -1.00000000000000 ) );
#307 = CARTESIAN_POINT( '', ( 5000.00000000000, 0.000000000000000, 0.000000000000000 ) );
#308 = DIRECTION( '', ( -1.00000000000000, 0.000000000000000, 0.000000000000000 ) );
#309 = DIRECTION( '', ( 0.000000000000000, 0.000000000000000, -1.00000000000000 ) );
#310 = SURFACE_STYLE_FILL_AREA( #347 );
#311 = ORIENTED_EDGE( '', *, *, #75, .F. );
#312 = ORIENTED_EDGE( '', *, *, #69, .F. );
#313 = ORIENTED_EDGE( '', *, *, #91, .F. );
#314 = ORIENTED_EDGE( '', *, *, #57, .T. );
#315 = CARTESIAN_POINT( '', ( 0.000000000000000, 0.000000000000000, 0.000000000000000 ) );
#316 = DIRECTION( '', ( -1.00000000000000, -0.000000000000000, -0.000000000000000 ) );
#317 = DIRECTION( '', ( 0.000000000000000, 0.000000000000000, -1.00000000000000 ) );
#318 = DIRECTION( '', ( 1.00000000000000, 0.000000000000000, 0.000000000000000 ) );
#319 = SURFACE_STYLE_FILL_AREA( #348 );
#320 = ORIENTED_EDGE( '', *, *, #51, .F. );
#321 = ORIENTED_EDGE( '', *, *, #85, .F. );
#322 = ORIENTED_EDGE( '', *, *, #99, .T. );
#323 = ORIENTED_EDGE( '', *, *, #69, .T. );
#324 = CARTESIAN_POINT( '', ( 0.000000000000000, 0.000000000000000, 0.000000000000000 ) );
#325 = DIRECTION( '', ( 1.00000000000000, 0.000000000000000, 0.000000000000000 ) );
#326 = DIRECTION( '', ( 0.000000000000000, 0.000000000000000, -1.00000000000000 ) );
#327 = DIRECTION( '', ( -1.00000000000000, -0.000000000000000, -0.000000000000000 ) );
#328 = CARTESIAN_POINT( '', ( 5000.00000000000, 0.000000000000000, 0.000000000000000 ) );
#329 = DIRECTION( '', ( 1.00000000000000, 0.000000000000000, 0.000000000000000 ) );
#330 = DIRECTION( '', ( 0.000000000000000, 0.000000000000000, -1.00000000000000 ) );
#331 = CARTESIAN_POINT( '', ( 0.000000000000000, 0.000000000000000, 0.000000000000000 ) );
#332 = DIRECTION( '', ( 1.00000000000000, -0.000000000000000, 0.000000000000000 ) );
#333 = DIRECTION( '', ( 0.000000000000000, 0.000000000000000, -1.00000000000000 ) );
#334 = DIRECTION( '', ( -1.00000000000000, 0.000000000000000, 0.000000000000000 ) );
#335 = CARTESIAN_POINT( '', ( 5000.00000000000, 0.000000000000000, 0.000000000000000 ) );
#336 = DIRECTION( '', ( -1.00000000000000, 0.000000000000000, 0.000000000000000 ) );
#337 = DIRECTION( '', ( 0.000000000000000, 0.000000000000000, -1.00000000000000 ) );
#338 = DIRECTION( '', ( 1.00000000000000, 0.000000000000000, 0.000000000000000 ) );
#339 = SURFACE_STYLE_FILL_AREA( #349 );
#340 = CARTESIAN_POINT( '', ( 0.000000000000000, 0.000000000000000, 0.000000000000000 ) );
#341 = DIRECTION( '', ( 1.00000000000000, -0.000000000000000, 0.000000000000000 ) );
#342 = DIRECTION( '', ( 0.000000000000000, 0.000000000000000, -1.00000000000000 ) );
#343 = FILL_AREA_STYLE( '', ( #350 ) );
#344 = FILL_AREA_STYLE( '', ( #351 ) );
#345 = FILL_AREA_STYLE( '', ( #352 ) );
#346 = FILL_AREA_STYLE( '', ( #353 ) );
#347 = FILL_AREA_STYLE( '', ( #354 ) );
#348 = FILL_AREA_STYLE( '', ( #355 ) );
#349 = FILL_AREA_STYLE( '', ( #356 ) );
#350 = FILL_AREA_STYLE_COLOUR( '', #357 );
#351 = FILL_AREA_STYLE_COLOUR( '', #358 );
#352 = FILL_AREA_STYLE_COLOUR( '', #359 );
#353 = FILL_AREA_STYLE_COLOUR( '', #360 );
#354 = FILL_AREA_STYLE_COLOUR( '', #361 );
#355 = FILL_AREA_STYLE_COLOUR( '', #362 );
#356 = FILL_AREA_STYLE_COLOUR( '', #363 );
#357 = COLOUR_RGB( '', 0.689999997615810, 0.689999997615810, 0.689999997615810 );
#358 = COLOUR_RGB( '', 0.689999997615810, 0.689999997615810, 0.689999997615810 );
#359 = COLOUR_RGB( '', 0.689999997615810, 0.689999997615810, 0.689999997615810 );
#360 = COLOUR_RGB( '', 0.689999997615810, 0.689999997615810, 0.689999997615810 );
#361 = COLOUR_RGB( '', 0.689999997615810, 0.689999997615810, 0.689999997615810 );
#362 = COLOUR_RGB( '', 0.689999997615810, 0.689999997615810, 0.689999997615810 );
#363 = COLOUR_RGB( '', 0.689999997615810, 0.689999997615810, 0.689999997615810 );
ENDSEC;
END-ISO-10303-21;
