ISO-10303-21;
HEADER;
FILE_DESCRIPTION( ( 'STEP AP214' ), '1' );
FILE_NAME( 'p:/temp/worker_8/temp/exporttempdir_5496_72_3Yyif/format_0/70064011007(architecture400).stp', '2021-11-25T10:42:24', ( 'License CC BY-ND 4.0' ), ( 'CADENAS' ), ' ', 'PARTsolutions', ' ' );
FILE_SCHEMA( ( 'AUTOMOTIVE_DESIGN { 1 0 10303 214 1 1 1 1 }' ) );
ENDSEC;
DATA;
#1 = MECHANICAL_DESIGN_GEOMETRIC_PRESENTATION_REPRESENTATION( ' ', ( #10, #11, #12, #13, #14, #15, #16 ), #6 );
#2 = PRODUCT_DEFINITION_CONTEXT( '', #17, 'design' );
#3 = APPLICATION_PROTOCOL_DEFINITION( 'international standard', 'automotive_design', 2001, #17 );
#4 = PRODUCT_CATEGORY_RELATIONSHIP( 'NONE', 'NONE', #18, #19 );
#5 = SHAPE_DEFINITION_REPRESENTATION( #20, #21 );
#6 =  ( GEOMETRIC_REPRESENTATION_CONTEXT( 3 )GLOBAL_UNCERTAINTY_ASSIGNED_CONTEXT( ( #24 ) )GLOBAL_UNIT_ASSIGNED_CONTEXT( ( #26, #27, #28 ) )REPRESENTATION_CONTEXT( 'NONE', 'WORKSPACE' ) );
#10 = STYLED_ITEM( '', ( #30 ), #31 );
#11 = STYLED_ITEM( '', ( #32 ), #33 );
#12 = STYLED_ITEM( '', ( #34 ), #35 );
#13 = STYLED_ITEM( '', ( #36 ), #37 );
#14 = STYLED_ITEM( '', ( #38 ), #39 );
#15 = STYLED_ITEM( '', ( #40 ), #41 );
#16 = STYLED_ITEM( '', ( #42 ), #43 );
#17 = APPLICATION_CONTEXT( 'core data for automotive mechanical design processes' );
#18 = PRODUCT_CATEGORY( 'part', 'NONE' );
#19 = PRODUCT_RELATED_PRODUCT_CATEGORY( 'detail', ' ', ( #44 ) );
#20 = PRODUCT_DEFINITION_SHAPE( 'NONE', 'NONE', #45 );
#21 = ADVANCED_BREP_SHAPE_REPRESENTATION( '_70064011007(architecture400)', ( #46, #47 ), #6 );
#24 = UNCERTAINTY_MEASURE_WITH_UNIT( LENGTH_MEASURE( 0.00100000000000000 ), #26, '', '' );
#26 =  ( CONVERSION_BASED_UNIT( 'MILLIMETRE', #50 )LENGTH_UNIT(  )NAMED_UNIT( #53 ) );
#27 =  ( NAMED_UNIT( #55 )PLANE_ANGLE_UNIT(  )SI_UNIT( $, .RADIAN. ) );
#28 =  ( NAMED_UNIT( #55 )SI_UNIT( $, .STERADIAN. )SOLID_ANGLE_UNIT(  ) );
#30 = PRESENTATION_STYLE_ASSIGNMENT( ( #61 ) );
#31 = ADVANCED_FACE( '', ( #62, #63 ), #64, .T. );
#32 = PRESENTATION_STYLE_ASSIGNMENT( ( #65 ) );
#33 = ADVANCED_FACE( '', ( #66, #67 ), #68, .F. );
#34 = PRESENTATION_STYLE_ASSIGNMENT( ( #69 ) );
#35 = ADVANCED_FACE( '', ( #70, #71 ), #72, .F. );
#36 = PRESENTATION_STYLE_ASSIGNMENT( ( #73 ) );
#37 = ADVANCED_FACE( '', ( #74, #75 ), #76, .T. );
#38 = PRESENTATION_STYLE_ASSIGNMENT( ( #77 ) );
#39 = ADVANCED_FACE( '', ( #78, #79 ), #80, .F. );
#40 = PRESENTATION_STYLE_ASSIGNMENT( ( #81 ) );
#41 = ADVANCED_FACE( '', ( #82, #83 ), #84, .T. );
#42 = PRESENTATION_STYLE_ASSIGNMENT( ( #85 ) );
#43 = ADVANCED_FACE( '', ( #86, #87 ), #88, .F. );
#44 = PRODUCT( '_70064011007(architecture400)', '_70064011007(architecture400)', 'PART-_70064011007(architecture400)-DESC', ( #89 ) );
#45 = PRODUCT_DEFINITION( 'NONE', 'NONE', #90, #2 );
#46 = MANIFOLD_SOLID_BREP( '_70064011007(architecture400)', #91 );
#47 = AXIS2_PLACEMENT_3D( '', #92, #93, #94 );
#50 = LENGTH_MEASURE_WITH_UNIT( LENGTH_MEASURE( 1.00000000000000 ), #95 );
#53 = DIMENSIONAL_EXPONENTS( 1.00000000000000, 0.000000000000000, 0.000000000000000, 0.000000000000000, 0.000000000000000, 0.000000000000000, 0.000000000000000 );
#55 = DIMENSIONAL_EXPONENTS( 0.000000000000000, 0.000000000000000, 0.000000000000000, 0.000000000000000, 0.000000000000000, 0.000000000000000, 0.000000000000000 );
#61 = SURFACE_STYLE_USAGE( .BOTH., #96 );
#62 = FACE_OUTER_BOUND( '', #97, .T. );
#63 = FACE_OUTER_BOUND( '', #98, .T. );
#64 = CYLINDRICAL_SURFACE( '', #99, 55.0000000000000 );
#65 = SURFACE_STYLE_USAGE( .BOTH., #100 );
#66 = FACE_OUTER_BOUND( '', #101, .T. );
#67 = FACE_OUTER_BOUND( '', #102, .T. );
#68 = TOROIDAL_SURFACE( '', #103, 24.8000000000000, 15.1000000000000 );
#69 = SURFACE_STYLE_USAGE( .BOTH., #104 );
#70 = FACE_OUTER_BOUND( '', #105, .T. );
#71 = FACE_OUTER_BOUND( '', #106, .T. );
#72 = CYLINDRICAL_SURFACE( '', #107, 39.9000000000000 );
#73 = SURFACE_STYLE_USAGE( .BOTH., #108 );
#74 = FACE_BOUND( '', #109, .T. );
#75 = FACE_OUTER_BOUND( '', #110, .T. );
#76 = SPHERICAL_SURFACE( '', #111, 110.000000000000 );
#77 = SURFACE_STYLE_USAGE( .BOTH., #112 );
#78 = FACE_BOUND( '', #113, .T. );
#79 = FACE_OUTER_BOUND( '', #114, .T. );
#80 = PLANE( '', #115 );
#81 = SURFACE_STYLE_USAGE( .BOTH., #116 );
#82 = FACE_OUTER_BOUND( '', #117, .T. );
#83 = FACE_OUTER_BOUND( '', #118, .T. );
#84 = ( BOUNDED_SURFACE(  )B_SPLINE_SURFACE( 3, 3, ( ( #121, #122, #123, #124, #125, #126, #127 ), ( #128, #129, #130, #131, #132, #133, #134 ), ( #135, #136, #137, #138, #139, #140, #141 ), ( #142, #143, #144, #145, #146, #147, #148 ) ), .UNSPECIFIED., .F., .T., .F. )B_SPLINE_SURFACE_WITH_KNOTS( ( 4, 4 ), ( 4, 3, 4 ), ( 0.000000000000000, 6.28318530717959 ), ( -1.25478604805149, -0.627393024025743, -4.44089209850063E-16 ), .UNSPECIFIED. )GEOMETRIC_REPRESENTATION_ITEM(  )RATIONAL_B_SPLINE_SURFACE( ( ( 1.00000000000000, 0.333333333333333, 0.333333333333333, 1.00000000000000, 0.333333333333333, 0.333333333333333, 1.00000000000000 ), ( 0.873040431330019, 0.291013477110006, 0.291013477110006, 0.873040431330019, 0.291013477110006, 0.291013477110006, 0.873040431330019 ), ( 0.873040431330019, 0.291013477110006, 0.291013477110006, 0.873040431330019, 0.291013477110006, 0.291013477110006, 0.873040431330019 ), ( 1.00000000000000, 0.333333333333333, 0.333333333333333, 1.00000000000000, 0.333333333333333, 0.333333333333333, 1.00000000000000 ) ) )REPRESENTATION_ITEM( '' )SURFACE(  ) );
#85 = SURFACE_STYLE_USAGE( .BOTH., #154 );
#86 = FACE_BOUND( '', #155, .T. );
#87 = FACE_OUTER_BOUND( '', #156, .T. );
#88 = SPHERICAL_SURFACE( '', #157, 94.9000000000000 );
#89 = PRODUCT_CONTEXT( '', #17, 'mechanical' );
#90 = PRODUCT_DEFINITION_FORMATION_WITH_SPECIFIED_SOURCE( ' ', 'NONE', #44, .NOT_KNOWN. );
#91 = CLOSED_SHELL( '', ( #33, #35, #39, #31, #41, #37, #43 ) );
#92 = CARTESIAN_POINT( '', ( 0.000000000000000, 0.000000000000000, 0.000000000000000 ) );
#93 = DIRECTION( '', ( 0.000000000000000, 0.000000000000000, 1.00000000000000 ) );
#94 = DIRECTION( '', ( 1.00000000000000, 0.000000000000000, 0.000000000000000 ) );
#95 =  ( LENGTH_UNIT(  )NAMED_UNIT( #53 )SI_UNIT( .MILLI., .METRE. ) );
#96 = SURFACE_SIDE_STYLE( '', ( #159 ) );
#97 = EDGE_LOOP( '', ( #160 ) );
#98 = EDGE_LOOP( '', ( #161 ) );
#99 = AXIS2_PLACEMENT_3D( '', #162, #163, #164 );
#100 = SURFACE_SIDE_STYLE( '', ( #165 ) );
#101 = EDGE_LOOP( '', ( #166 ) );
#102 = EDGE_LOOP( '', ( #167 ) );
#103 = AXIS2_PLACEMENT_3D( '', #168, #169, #170 );
#104 = SURFACE_SIDE_STYLE( '', ( #171 ) );
#105 = EDGE_LOOP( '', ( #172 ) );
#106 = EDGE_LOOP( '', ( #173 ) );
#107 = AXIS2_PLACEMENT_3D( '', #174, #175, #176 );
#108 = SURFACE_SIDE_STYLE( '', ( #177 ) );
#109 = VERTEX_LOOP( '', #178 );
#110 = EDGE_LOOP( '', ( #179 ) );
#111 = AXIS2_PLACEMENT_3D( '', #180, #181, #182 );
#112 = SURFACE_SIDE_STYLE( '', ( #183 ) );
#113 = EDGE_LOOP( '', ( #184 ) );
#114 = EDGE_LOOP( '', ( #185 ) );
#115 = AXIS2_PLACEMENT_3D( '', #186, #187, #188 );
#116 = SURFACE_SIDE_STYLE( '', ( #189 ) );
#117 = EDGE_LOOP( '', ( #190 ) );
#118 = EDGE_LOOP( '', ( #191 ) );
#121 = CARTESIAN_POINT( '', ( -83.8485332752058, 0.000000000000000, -55.0000000000000 ) );
#122 = CARTESIAN_POINT( '', ( -83.8485332752058, 110.000000000000, -55.0000000000000 ) );
#123 = CARTESIAN_POINT( '', ( -83.8485332752058, 110.000000000000, 55.0000000000000 ) );
#124 = CARTESIAN_POINT( '', ( -83.8485332752058, 0.000000000000000, 55.0000000000000 ) );
#125 = CARTESIAN_POINT( '', ( -83.8485332752058, -110.000000000000, 55.0000000000000 ) );
#126 = CARTESIAN_POINT( '', ( -83.8485332752058, -110.000000000000, -55.0000000000000 ) );
#127 = CARTESIAN_POINT( '', ( -83.8485332752058, 0.000000000000000, -55.0000000000000 ) );
#128 = CARTESIAN_POINT( '', ( -97.3862757167417, 0.000000000000000, -55.0000000000000 ) );
#129 = CARTESIAN_POINT( '', ( -97.3862757167417, 110.000000000000, -55.0000000000000 ) );
#130 = CARTESIAN_POINT( '', ( -97.3862757167417, 110.000000000000, 55.0000000000000 ) );
#131 = CARTESIAN_POINT( '', ( -97.3862757167417, 0.000000000000000, 55.0000000000000 ) );
#132 = CARTESIAN_POINT( '', ( -97.3862757167417, -110.000000000000, 55.0000000000000 ) );
#133 = CARTESIAN_POINT( '', ( -97.3862757167417, -110.000000000000, -55.0000000000000 ) );
#134 = CARTESIAN_POINT( '', ( -97.3862757167417, 0.000000000000000, -55.0000000000000 ) );
#135 = CARTESIAN_POINT( '', ( -108.345899246564, 0.000000000000000, -47.0528544433905 ) );
#136 = CARTESIAN_POINT( '', ( -108.345899246564, 94.1057088867810, -47.0528544433905 ) );
#137 = CARTESIAN_POINT( '', ( -108.345899246564, 94.1057088867810, 47.0528544433905 ) );
#138 = CARTESIAN_POINT( '', ( -108.345899246564, 0.000000000000000, 47.0528544433905 ) );
#139 = CARTESIAN_POINT( '', ( -108.345899246564, -94.1057088867810, 47.0528544433905 ) );
#140 = CARTESIAN_POINT( '', ( -108.345899246564, -94.1057088867810, -47.0528544433905 ) );
#141 = CARTESIAN_POINT( '', ( -108.345899246564, 0.000000000000000, -47.0528544433905 ) );
#142 = CARTESIAN_POINT( '', ( -112.553116636277, 0.000000000000000, -34.1854618462457 ) );
#143 = CARTESIAN_POINT( '', ( -112.553116636277, 68.3709236924913, -34.1854618462457 ) );
#144 = CARTESIAN_POINT( '', ( -112.553116636277, 68.3709236924913, 34.1854618462457 ) );
#145 = CARTESIAN_POINT( '', ( -112.553116636277, 0.000000000000000, 34.1854618462457 ) );
#146 = CARTESIAN_POINT( '', ( -112.553116636277, -68.3709236924913, 34.1854618462457 ) );
#147 = CARTESIAN_POINT( '', ( -112.553116636277, -68.3709236924913, -34.1854618462457 ) );
#148 = CARTESIAN_POINT( '', ( -112.553116636277, 0.000000000000000, -34.1854618462457 ) );
#154 = SURFACE_SIDE_STYLE( '', ( #192 ) );
#155 = VERTEX_LOOP( '', #193 );
#156 = EDGE_LOOP( '', ( #194 ) );
#157 = AXIS2_PLACEMENT_3D( '', #195, #196, #197 );
#159 = SURFACE_STYLE_FILL_AREA( #198 );
#160 = ORIENTED_EDGE( '', *, *, #199, .F. );
#161 = ORIENTED_EDGE( '', *, *, #200, .T. );
#162 = CARTESIAN_POINT( '', ( -102.900000000000, 0.000000000000000, 0.000000000000000 ) );
#163 = DIRECTION( '', ( -1.00000000000000, -0.000000000000000, 0.000000000000000 ) );
#164 = DIRECTION( '', ( -0.000000000000000, 0.000000000000000, -1.00000000000000 ) );
#165 = SURFACE_STYLE_FILL_AREA( #201 );
#166 = ORIENTED_EDGE( '', *, *, #202, .F. );
#167 = ORIENTED_EDGE( '', *, *, #203, .T. );
#168 = CARTESIAN_POINT( '', ( -83.8485332752058, 0.000000000000000, 0.000000000000000 ) );
#169 = DIRECTION( '', ( 1.00000000000000, 0.000000000000000, -0.000000000000000 ) );
#170 = DIRECTION( '', ( -0.000000000000000, 0.000000000000000, -1.00000000000000 ) );
#171 = SURFACE_STYLE_FILL_AREA( #204 );
#172 = ORIENTED_EDGE( '', *, *, #203, .F. );
#173 = ORIENTED_EDGE( '', *, *, #205, .T. );
#174 = CARTESIAN_POINT( '', ( -102.900000000000, 0.000000000000000, 0.000000000000000 ) );
#175 = DIRECTION( '', ( -1.00000000000000, -0.000000000000000, 0.000000000000000 ) );
#176 = DIRECTION( '', ( -0.000000000000000, 0.000000000000000, -1.00000000000000 ) );
#177 = SURFACE_STYLE_FILL_AREA( #206 );
#178 = VERTEX_POINT( '', #207 );
#179 = ORIENTED_EDGE( '', *, *, #208, .F. );
#180 = CARTESIAN_POINT( '', ( -8.00000000000010, 0.000000000000000, -2.60208521396521E-14 ) );
#181 = DIRECTION( '', ( 1.00000000000000, 0.000000000000000, 0.000000000000000 ) );
#182 = DIRECTION( '', ( 0.000000000000000, 0.000000000000000, 1.00000000000000 ) );
#183 = SURFACE_STYLE_FILL_AREA( #209 );
#184 = ORIENTED_EDGE( '', *, *, #205, .F. );
#185 = ORIENTED_EDGE( '', *, *, #199, .T. );
#186 = CARTESIAN_POINT( '', ( 0.000000000000000, 0.000000000000000, 55.0000000000000 ) );
#187 = DIRECTION( '', ( -1.00000000000000, 0.000000000000000, 0.000000000000000 ) );
#188 = DIRECTION( '', ( 0.000000000000000, 0.000000000000000, 1.00000000000000 ) );
#189 = SURFACE_STYLE_FILL_AREA( #210 );
#190 = ORIENTED_EDGE( '', *, *, #208, .T. );
#191 = ORIENTED_EDGE( '', *, *, #200, .F. );
#192 = SURFACE_STYLE_FILL_AREA( #211 );
#193 = VERTEX_POINT( '', #212 );
#194 = ORIENTED_EDGE( '', *, *, #202, .T. );
#195 = CARTESIAN_POINT( '', ( -8.00000000000079, 0.000000000000000, 7.97972798949331E-14 ) );
#196 = DIRECTION( '', ( 1.00000000000000, 0.000000000000000, 0.000000000000000 ) );
#197 = DIRECTION( '', ( 0.000000000000000, 0.000000000000000, 1.00000000000000 ) );
#198 = FILL_AREA_STYLE( '', ( #213 ) );
#199 = EDGE_CURVE( '', #214, #214, #215, .T. );
#200 = EDGE_CURVE( '', #216, #216, #217, .T. );
#201 = FILL_AREA_STYLE( '', ( #218 ) );
#202 = EDGE_CURVE( '', #219, #219, #220, .T. );
#203 = EDGE_CURVE( '', #221, #221, #222, .T. );
#204 = FILL_AREA_STYLE( '', ( #223 ) );
#205 = EDGE_CURVE( '', #224, #224, #225, .T. );
#206 = FILL_AREA_STYLE( '', ( #226 ) );
#207 = CARTESIAN_POINT( '', ( -118.000000000000, 0.000000000000000, -1.92852947443417E-14 ) );
#208 = EDGE_CURVE( '', #227, #227, #228, .T. );
#209 = FILL_AREA_STYLE( '', ( #229 ) );
#210 = FILL_AREA_STYLE( '', ( #230 ) );
#211 = FILL_AREA_STYLE( '', ( #231 ) );
#212 = CARTESIAN_POINT( '', ( -102.900000000000, 0.000000000000000, 8.56082289568873E-14 ) );
#213 = FILL_AREA_STYLE_COLOUR( '', #232 );
#214 = VERTEX_POINT( '', #233 );
#215 = CIRCLE( '', #234, 55.0000000000000 );
#216 = VERTEX_POINT( '', #235 );
#217 = CIRCLE( '', #236, 55.0000000000000 );
#218 = FILL_AREA_STYLE_COLOUR( '', #237 );
#219 = VERTEX_POINT( '', #238 );
#220 = CIRCLE( '', #239, 29.4927324073000 );
#221 = VERTEX_POINT( '', #240 );
#222 = CIRCLE( '', #241, 39.9000000000000 );
#223 = FILL_AREA_STYLE_COLOUR( '', #242 );
#224 = VERTEX_POINT( '', #243 );
#225 = CIRCLE( '', #244, 39.9000000000000 );
#226 = FILL_AREA_STYLE_COLOUR( '', #245 );
#227 = VERTEX_POINT( '', #246 );
#228 = CIRCLE( '', #247, 34.1854618462000 );
#229 = FILL_AREA_STYLE_COLOUR( '', #248 );
#230 = FILL_AREA_STYLE_COLOUR( '', #249 );
#231 = FILL_AREA_STYLE_COLOUR( '', #250 );
#232 = COLOUR_RGB( '', 0.689999997600000, 0.689999997600000, 0.689999997600000 );
#233 = CARTESIAN_POINT( '', ( 0.000000000000000, 0.000000000000000, -55.0000000000000 ) );
#234 = AXIS2_PLACEMENT_3D( '', #251, #252, #253 );
#235 = CARTESIAN_POINT( '', ( -83.8485332752058, 0.000000000000000, -55.0000000000000 ) );
#236 = AXIS2_PLACEMENT_3D( '', #254, #255, #256 );
#237 = COLOUR_RGB( '', 0.689999997600000, 0.689999997600000, 0.689999997600000 );
#238 = CARTESIAN_POINT( '', ( -98.2008244704554, 0.000000000000000, -29.4927324073254 ) );
#239 = AXIS2_PLACEMENT_3D( '', #257, #258, #259 );
#240 = CARTESIAN_POINT( '', ( -83.8485332752058, 0.000000000000000, -39.9000000000000 ) );
#241 = AXIS2_PLACEMENT_3D( '', #260, #261, #262 );
#242 = COLOUR_RGB( '', 0.689999997600000, 0.689999997600000, 0.689999997600000 );
#243 = CARTESIAN_POINT( '', ( 0.000000000000000, 0.000000000000000, -39.9000000000000 ) );
#244 = AXIS2_PLACEMENT_3D( '', #263, #264, #265 );
#245 = COLOUR_RGB( '', 0.689999997600000, 0.689999997600000, 0.689999997600000 );
#246 = CARTESIAN_POINT( '', ( -112.553116636277, 0.000000000000000, -34.1854618462457 ) );
#247 = AXIS2_PLACEMENT_3D( '', #266, #267, #268 );
#248 = COLOUR_RGB( '', 0.689999997600000, 0.689999997600000, 0.689999997600000 );
#249 = COLOUR_RGB( '', 0.689999997600000, 0.689999997600000, 0.689999997600000 );
#250 = COLOUR_RGB( '', 0.689999997600000, 0.689999997600000, 0.689999997600000 );
#251 = CARTESIAN_POINT( '', ( 0.000000000000000, 0.000000000000000, 0.000000000000000 ) );
#252 = DIRECTION( '', ( 1.00000000000000, 0.000000000000000, -0.000000000000000 ) );
#253 = DIRECTION( '', ( -0.000000000000000, 0.000000000000000, -1.00000000000000 ) );
#254 = CARTESIAN_POINT( '', ( -83.8485332752058, 0.000000000000000, 0.000000000000000 ) );
#255 = DIRECTION( '', ( 1.00000000000000, 0.000000000000000, -0.000000000000000 ) );
#256 = DIRECTION( '', ( -0.000000000000000, 0.000000000000000, -1.00000000000000 ) );
#257 = CARTESIAN_POINT( '', ( -98.2008244704554, 0.000000000000000, 0.000000000000000 ) );
#258 = DIRECTION( '', ( 1.00000000000000, 0.000000000000000, -0.000000000000000 ) );
#259 = DIRECTION( '', ( -0.000000000000000, 0.000000000000000, -1.00000000000000 ) );
#260 = CARTESIAN_POINT( '', ( -83.8485332752058, 0.000000000000000, 0.000000000000000 ) );
#261 = DIRECTION( '', ( 1.00000000000000, 0.000000000000000, -0.000000000000000 ) );
#262 = DIRECTION( '', ( -0.000000000000000, 0.000000000000000, -1.00000000000000 ) );
#263 = CARTESIAN_POINT( '', ( 0.000000000000000, 0.000000000000000, 0.000000000000000 ) );
#264 = DIRECTION( '', ( 1.00000000000000, 0.000000000000000, -0.000000000000000 ) );
#265 = DIRECTION( '', ( -0.000000000000000, 0.000000000000000, -1.00000000000000 ) );
#266 = CARTESIAN_POINT( '', ( -112.553116636277, 0.000000000000000, 0.000000000000000 ) );
#267 = DIRECTION( '', ( 1.00000000000000, 0.000000000000000, -0.000000000000000 ) );
#268 = DIRECTION( '', ( -0.000000000000000, 0.000000000000000, -1.00000000000000 ) );
ENDSEC;
END-ISO-10303-21;
