ISO-10303-21;
HEADER;
FILE_DESCRIPTION( ( '' ), '1' );
FILE_NAME( '//se01002/users/anro/AGRU_25705056000_PE_100_schwarz_Rohr__5m_560X10_0__Ventilation_05.stp', '2017-12-11T10:04:47', ( '' ), ( '' ), ' ', ' ', ' ' );
FILE_SCHEMA( ( 'automotive_design' ) );
ENDSEC;
DATA;
#1 = MECHANICAL_DESIGN_GEOMETRIC_PRESENTATION_REPRESENTATION( ' ', ( #10, #11, #12, #13, #14, #15, #16, #17, #18, #19, #20, #21, #22, #23, #24, #25, #26, #27, #28, #29, #30, #31, #32, #33, #34, #35, #36 ), #6 );
#2 = PRODUCT_DEFINITION_CONTEXT( '', #37, 'design' );
#3 = APPLICATION_PROTOCOL_DEFINITION( 'INTERNATIONAL STANDARD', 'automotive_design', 1994, #37 );
#4 = PRODUCT_CATEGORY_RELATIONSHIP( 'NONE', 'NONE', #38, #39 );
#5 = SHAPE_DEFINITION_REPRESENTATION( #40, #41 );
#6 =  ( GEOMETRIC_REPRESENTATION_CONTEXT( 3 )GLOBAL_UNCERTAINTY_ASSIGNED_CONTEXT( ( #44 ) )GLOBAL_UNIT_ASSIGNED_CONTEXT( ( #46, #47, #48 ) )REPRESENTATION_CONTEXT( 'NONE', 'WORKSPACE' ) );
#10 = STYLED_ITEM( '', ( #50 ), #51 );
#11 = STYLED_ITEM( '', ( #52 ), #53 );
#12 = STYLED_ITEM( '', ( #54 ), #55 );
#13 = STYLED_ITEM( '', ( #56 ), #57 );
#14 = STYLED_ITEM( '', ( #58 ), #59 );
#15 = STYLED_ITEM( '', ( #60 ), #61 );
#16 = STYLED_ITEM( '', ( #62 ), #63 );
#17 = STYLED_ITEM( '', ( #64 ), #65 );
#18 = STYLED_ITEM( '', ( #66 ), #67 );
#19 = STYLED_ITEM( '', ( #68 ), #69 );
#20 = STYLED_ITEM( '', ( #70 ), #71 );
#21 = STYLED_ITEM( '', ( #72 ), #73 );
#22 = STYLED_ITEM( '', ( #74 ), #75 );
#23 = STYLED_ITEM( '', ( #76 ), #77 );
#24 = STYLED_ITEM( '', ( #78 ), #79 );
#25 = STYLED_ITEM( '', ( #80 ), #81 );
#26 = STYLED_ITEM( '', ( #82 ), #83 );
#27 = STYLED_ITEM( '', ( #84 ), #85 );
#28 = STYLED_ITEM( '', ( #86 ), #87 );
#29 = STYLED_ITEM( '', ( #88 ), #89 );
#30 = STYLED_ITEM( '', ( #90 ), #91 );
#31 = STYLED_ITEM( '', ( #92 ), #93 );
#32 = STYLED_ITEM( '', ( #94 ), #95 );
#33 = STYLED_ITEM( '', ( #96 ), #97 );
#34 = STYLED_ITEM( '', ( #98 ), #99 );
#35 = STYLED_ITEM( '', ( #100 ), #101 );
#36 = STYLED_ITEM( '', ( #102 ), #103 );
#37 = APPLICATION_CONTEXT( ' ' );
#38 = PRODUCT_CATEGORY( 'part', 'NONE' );
#39 = PRODUCT_RELATED_PRODUCT_CATEGORY( 'detail', ' ', ( #104 ) );
#40 = PRODUCT_DEFINITION_SHAPE( 'NONE', 'NONE', #105 );
#41 = ADVANCED_BREP_SHAPE_REPRESENTATION( '1', ( #77, #106 ), #6 );
#44 = UNCERTAINTY_MEASURE_WITH_UNIT( LENGTH_MEASURE( 1.00000000000000E-006 ), #46, '', '' );
#46 =  ( CONVERSION_BASED_UNIT( 'MILLIMETRE', #109 )LENGTH_UNIT(  )NAMED_UNIT( #112 ) );
#47 =  ( NAMED_UNIT( #114 )PLANE_ANGLE_UNIT(  )SI_UNIT( $, .RADIAN. ) );
#48 =  ( NAMED_UNIT( #114 )SOLID_ANGLE_UNIT(  )SI_UNIT( $, .STERADIAN. ) );
#50 = PRESENTATION_STYLE_ASSIGNMENT( ( #120 ) );
#51 = EDGE_CURVE( '', #75, #99, #121, .T. );
#52 = PRESENTATION_STYLE_ASSIGNMENT( ( #122 ) );
#53 = VERTEX_POINT( '', #123 );
#54 = PRESENTATION_STYLE_ASSIGNMENT( ( #124 ) );
#55 = ADVANCED_FACE( '', ( #125 ), #126, .T. );
#56 = PRESENTATION_STYLE_ASSIGNMENT( ( #127 ) );
#57 = EDGE_CURVE( '', #61, #85, #128, .T. );
#58 = PRESENTATION_STYLE_ASSIGNMENT( ( #129 ) );
#59 = EDGE_CURVE( '', #85, #61, #130, .T. );
#60 = PRESENTATION_STYLE_ASSIGNMENT( ( #131 ) );
#61 = VERTEX_POINT( '', #132 );
#62 = PRESENTATION_STYLE_ASSIGNMENT( ( #133 ) );
#63 = EDGE_CURVE( '', #85, #91, #134, .T. );
#64 = PRESENTATION_STYLE_ASSIGNMENT( ( #135 ) );
#65 = EDGE_CURVE( '', #99, #75, #136, .T. );
#66 = PRESENTATION_STYLE_ASSIGNMENT( ( #137 ) );
#67 = EDGE_CURVE( '', #91, #53, #138, .T. );
#68 = PRESENTATION_STYLE_ASSIGNMENT( ( #139 ) );
#69 = EDGE_CURVE( '', #103, #99, #140, .T. );
#70 = PRESENTATION_STYLE_ASSIGNMENT( ( #141 ) );
#71 = EDGE_CURVE( '', #83, #103, #142, .T. );
#72 = PRESENTATION_STYLE_ASSIGNMENT( ( #143 ) );
#73 = EDGE_CURVE( '', #103, #83, #144, .T. );
#74 = PRESENTATION_STYLE_ASSIGNMENT( ( #145 ) );
#75 = VERTEX_POINT( '', #146 );
#76 = PRESENTATION_STYLE_ASSIGNMENT( ( #147 ) );
#77 = MANIFOLD_SOLID_BREP( '1', #148 );
#78 = PRESENTATION_STYLE_ASSIGNMENT( ( #149 ) );
#79 = EDGE_CURVE( '', #75, #83, #150, .T. );
#80 = PRESENTATION_STYLE_ASSIGNMENT( ( #151 ) );
#81 = EDGE_CURVE( '', #53, #91, #152, .T. );
#82 = PRESENTATION_STYLE_ASSIGNMENT( ( #153 ) );
#83 = VERTEX_POINT( '', #154 );
#84 = PRESENTATION_STYLE_ASSIGNMENT( ( #155 ) );
#85 = VERTEX_POINT( '', #156 );
#86 = PRESENTATION_STYLE_ASSIGNMENT( ( #157 ) );
#87 = ADVANCED_FACE( '', ( #158 ), #159, .F. );
#88 = PRESENTATION_STYLE_ASSIGNMENT( ( #160 ) );
#89 = ADVANCED_FACE( '', ( #161, #162 ), #163, .T. );
#90 = PRESENTATION_STYLE_ASSIGNMENT( ( #164 ) );
#91 = VERTEX_POINT( '', #165 );
#92 = PRESENTATION_STYLE_ASSIGNMENT( ( #166 ) );
#93 = ADVANCED_FACE( '', ( #167 ), #168, .T. );
#94 = PRESENTATION_STYLE_ASSIGNMENT( ( #169 ) );
#95 = ADVANCED_FACE( '', ( #170, #171 ), #172, .F. );
#96 = PRESENTATION_STYLE_ASSIGNMENT( ( #173 ) );
#97 = ADVANCED_FACE( '', ( #174 ), #175, .F. );
#98 = PRESENTATION_STYLE_ASSIGNMENT( ( #176 ) );
#99 = VERTEX_POINT( '', #177 );
#100 = PRESENTATION_STYLE_ASSIGNMENT( ( #178 ) );
#101 = EDGE_CURVE( '', #53, #61, #179, .T. );
#102 = PRESENTATION_STYLE_ASSIGNMENT( ( #180 ) );
#103 = VERTEX_POINT( '', #181 );
#104 = PRODUCT( '1', '1', 'PART-1-DESC', ( #182 ) );
#105 = PRODUCT_DEFINITION( 'NONE', 'NONE', #183, #2 );
#106 = AXIS2_PLACEMENT_3D( '', #184, #185, #186 );
#109 = LENGTH_MEASURE_WITH_UNIT( LENGTH_MEASURE( 1.00000000000000 ), #187 );
#112 = DIMENSIONAL_EXPONENTS( 1.00000000000000, 0.000000000000000, 0.000000000000000, 0.000000000000000, 0.000000000000000, 0.000000000000000, 0.000000000000000 );
#114 = DIMENSIONAL_EXPONENTS( 0.000000000000000, 0.000000000000000, 0.000000000000000, 0.000000000000000, 0.000000000000000, 0.000000000000000, 0.000000000000000 );
#120 = CURVE_STYLE( '', #188, POSITIVE_LENGTH_MEASURE( 1.00000000000000E-006 ), #189 );
#121 = CIRCLE( '', #190, 270.000000000000 );
#122 = POINT_STYLE( ' ', #191, POSITIVE_LENGTH_MEASURE( 1.00000000000000E-006 ), #192 );
#123 = CARTESIAN_POINT( '', ( 0.000000000000000, 0.000000000000000, -280.000000000000 ) );
#124 = SURFACE_STYLE_USAGE( .BOTH., #193 );
#125 = FACE_OUTER_BOUND( '', #194, .T. );
#126 = CYLINDRICAL_SURFACE( '', #195, 280.000000000000 );
#127 = CURVE_STYLE( '', #196, POSITIVE_LENGTH_MEASURE( 1.00000000000000E-006 ), #197 );
#128 = CIRCLE( '', #198, 280.000000000000 );
#129 = CURVE_STYLE( '', #199, POSITIVE_LENGTH_MEASURE( 1.00000000000000E-006 ), #200 );
#130 = CIRCLE( '', #201, 280.000000000000 );
#131 = POINT_STYLE( ' ', #202, POSITIVE_LENGTH_MEASURE( 1.00000000000000E-006 ), #203 );
#132 = CARTESIAN_POINT( '', ( 5000.00000000000, 0.000000000000000, -280.000000000000 ) );
#133 = CURVE_STYLE( '', #204, POSITIVE_LENGTH_MEASURE( 1.00000000000000E-006 ), #205 );
#134 = LINE( '', #206, #207 );
#135 = CURVE_STYLE( '', #208, POSITIVE_LENGTH_MEASURE( 1.00000000000000E-006 ), #209 );
#136 = CIRCLE( '', #210, 270.000000000000 );
#137 = CURVE_STYLE( '', #211, POSITIVE_LENGTH_MEASURE( 1.00000000000000E-006 ), #212 );
#138 = CIRCLE( '', #213, 280.000000000000 );
#139 = CURVE_STYLE( '', #214, POSITIVE_LENGTH_MEASURE( 1.00000000000000E-006 ), #215 );
#140 = LINE( '', #216, #217 );
#141 = CURVE_STYLE( '', #218, POSITIVE_LENGTH_MEASURE( 1.00000000000000E-006 ), #219 );
#142 = CIRCLE( '', #220, 270.000000000000 );
#143 = CURVE_STYLE( '', #221, POSITIVE_LENGTH_MEASURE( 1.00000000000000E-006 ), #222 );
#144 = CIRCLE( '', #223, 270.000000000000 );
#145 = POINT_STYLE( ' ', #224, POSITIVE_LENGTH_MEASURE( 1.00000000000000E-006 ), #225 );
#146 = CARTESIAN_POINT( '', ( 5000.00000000000, 3.30643715532042E-014, 270.000000000000 ) );
#147 = SURFACE_STYLE_USAGE( .BOTH., #226 );
#148 = CLOSED_SHELL( '', ( #55, #87, #97, #93, #89, #95 ) );
#149 = CURVE_STYLE( '', #227, POSITIVE_LENGTH_MEASURE( 1.00000000000000E-006 ), #228 );
#150 = LINE( '', #229, #230 );
#151 = CURVE_STYLE( '', #231, POSITIVE_LENGTH_MEASURE( 1.00000000000000E-006 ), #232 );
#152 = CIRCLE( '', #233, 280.000000000000 );
#153 = POINT_STYLE( ' ', #234, POSITIVE_LENGTH_MEASURE( 1.00000000000000E-006 ), #235 );
#154 = CARTESIAN_POINT( '', ( 0.000000000000000, 3.30643715532042E-014, 270.000000000000 ) );
#155 = POINT_STYLE( ' ', #236, POSITIVE_LENGTH_MEASURE( 1.00000000000000E-006 ), #237 );
#156 = CARTESIAN_POINT( '', ( 5000.00000000000, 3.42889779070266E-014, 280.000000000000 ) );
#157 = SURFACE_STYLE_USAGE( .BOTH., #238 );
#158 = FACE_OUTER_BOUND( '', #239, .T. );
#159 = CYLINDRICAL_SURFACE( '', #240, 270.000000000000 );
#160 = SURFACE_STYLE_USAGE( .BOTH., #241 );
#161 = FACE_OUTER_BOUND( '', #242, .T. );
#162 = FACE_BOUND( '', #243, .T. );
#163 = PLANE( '', #244 );
#164 = POINT_STYLE( ' ', #245, POSITIVE_LENGTH_MEASURE( 1.00000000000000E-006 ), #246 );
#165 = CARTESIAN_POINT( '', ( 0.000000000000000, 3.42889779070266E-014, 280.000000000000 ) );
#166 = SURFACE_STYLE_USAGE( .BOTH., #247 );
#167 = FACE_OUTER_BOUND( '', #248, .T. );
#168 = CYLINDRICAL_SURFACE( '', #249, 280.000000000000 );
#169 = SURFACE_STYLE_USAGE( .BOTH., #250 );
#170 = FACE_OUTER_BOUND( '', #251, .T. );
#171 = FACE_BOUND( '', #252, .T. );
#172 = PLANE( '', #253 );
#173 = SURFACE_STYLE_USAGE( .BOTH., #254 );
#174 = FACE_OUTER_BOUND( '', #255, .T. );
#175 = CYLINDRICAL_SURFACE( '', #256, 270.000000000000 );
#176 = POINT_STYLE( ' ', #257, POSITIVE_LENGTH_MEASURE( 1.00000000000000E-006 ), #258 );
#177 = CARTESIAN_POINT( '', ( 5000.00000000000, 0.000000000000000, -270.000000000000 ) );
#178 = CURVE_STYLE( '', #259, POSITIVE_LENGTH_MEASURE( 1.00000000000000E-006 ), #260 );
#179 = LINE( '', #261, #262 );
#180 = POINT_STYLE( ' ', #263, POSITIVE_LENGTH_MEASURE( 1.00000000000000E-006 ), #264 );
#181 = CARTESIAN_POINT( '', ( 0.000000000000000, 0.000000000000000, -270.000000000000 ) );
#182 = PRODUCT_CONTEXT( '', #37, 'mechanical' );
#183 = PRODUCT_DEFINITION_FORMATION_WITH_SPECIFIED_SOURCE( ' ', 'NONE', #104, .NOT_KNOWN. );
#184 = CARTESIAN_POINT( '', ( 0.000000000000000, 0.000000000000000, 0.000000000000000 ) );
#185 = DIRECTION( '', ( 0.000000000000000, 0.000000000000000, 1.00000000000000 ) );
#186 = DIRECTION( '', ( 1.00000000000000, 0.000000000000000, 0.000000000000000 ) );
#187 =  ( NAMED_UNIT( #112 )LENGTH_UNIT(  )SI_UNIT( .MILLI., .METRE. ) );
#188 = DRAUGHTING_PRE_DEFINED_CURVE_FONT( 'continuous' );
#189 = COLOUR_RGB( '', 0.689999997615810, 0.689999997615810, 0.689999997615810 );
#190 = AXIS2_PLACEMENT_3D( '', #266, #267, #268 );
#191 = PRE_DEFINED_MARKER( '' );
#192 = COLOUR_RGB( '', 0.689999997615810, 0.689999997615810, 0.689999997615810 );
#193 = SURFACE_SIDE_STYLE( '', ( #269 ) );
#194 = EDGE_LOOP( '', ( #270, #271, #272, #273 ) );
#195 = AXIS2_PLACEMENT_3D( '', #274, #275, #276 );
#196 = DRAUGHTING_PRE_DEFINED_CURVE_FONT( 'continuous' );
#197 = COLOUR_RGB( '', 0.689999997615810, 0.689999997615810, 0.689999997615810 );
#198 = AXIS2_PLACEMENT_3D( '', #277, #278, #279 );
#199 = DRAUGHTING_PRE_DEFINED_CURVE_FONT( 'continuous' );
#200 = COLOUR_RGB( '', 0.689999997615810, 0.689999997615810, 0.689999997615810 );
#201 = AXIS2_PLACEMENT_3D( '', #280, #281, #282 );
#202 = PRE_DEFINED_MARKER( '' );
#203 = COLOUR_RGB( '', 0.689999997615810, 0.689999997615810, 0.689999997615810 );
#204 = DRAUGHTING_PRE_DEFINED_CURVE_FONT( 'continuous' );
#205 = COLOUR_RGB( '', 0.689999997615810, 0.689999997615810, 0.689999997615810 );
#206 = CARTESIAN_POINT( '', ( 0.000000000000000, 3.42889779070266E-014, 280.000000000000 ) );
#207 = VECTOR( '', #283, 1.00000000000000 );
#208 = DRAUGHTING_PRE_DEFINED_CURVE_FONT( 'continuous' );
#209 = COLOUR_RGB( '', 0.689999997615810, 0.689999997615810, 0.689999997615810 );
#210 = AXIS2_PLACEMENT_3D( '', #284, #285, #286 );
#211 = DRAUGHTING_PRE_DEFINED_CURVE_FONT( 'continuous' );
#212 = COLOUR_RGB( '', 0.689999997615810, 0.689999997615810, 0.689999997615810 );
#213 = AXIS2_PLACEMENT_3D( '', #287, #288, #289 );
#214 = DRAUGHTING_PRE_DEFINED_CURVE_FONT( 'continuous' );
#215 = COLOUR_RGB( '', 0.689999997615810, 0.689999997615810, 0.689999997615810 );
#216 = CARTESIAN_POINT( '', ( 0.000000000000000, -3.30643715532042E-014, -270.000000000000 ) );
#217 = VECTOR( '', #290, 1.00000000000000 );
#218 = DRAUGHTING_PRE_DEFINED_CURVE_FONT( 'continuous' );
#219 = COLOUR_RGB( '', 0.689999997615810, 0.689999997615810, 0.689999997615810 );
#220 = AXIS2_PLACEMENT_3D( '', #291, #292, #293 );
#221 = DRAUGHTING_PRE_DEFINED_CURVE_FONT( 'continuous' );
#222 = COLOUR_RGB( '', 0.689999997615810, 0.689999997615810, 0.689999997615810 );
#223 = AXIS2_PLACEMENT_3D( '', #294, #295, #296 );
#224 = PRE_DEFINED_MARKER( '' );
#225 = COLOUR_RGB( '', 0.689999997615810, 0.689999997615810, 0.689999997615810 );
#226 = SURFACE_SIDE_STYLE( '', ( #297 ) );
#227 = DRAUGHTING_PRE_DEFINED_CURVE_FONT( 'continuous' );
#228 = COLOUR_RGB( '', 0.689999997615810, 0.689999997615810, 0.689999997615810 );
#229 = CARTESIAN_POINT( '', ( 0.000000000000000, 3.30643715532042E-014, 270.000000000000 ) );
#230 = VECTOR( '', #298, 1.00000000000000 );
#231 = DRAUGHTING_PRE_DEFINED_CURVE_FONT( 'continuous' );
#232 = COLOUR_RGB( '', 0.689999997615810, 0.689999997615810, 0.689999997615810 );
#233 = AXIS2_PLACEMENT_3D( '', #299, #300, #301 );
#234 = PRE_DEFINED_MARKER( '' );
#235 = COLOUR_RGB( '', 0.689999997615810, 0.689999997615810, 0.689999997615810 );
#236 = PRE_DEFINED_MARKER( '' );
#237 = COLOUR_RGB( '', 0.689999997615810, 0.689999997615810, 0.689999997615810 );
#238 = SURFACE_SIDE_STYLE( '', ( #302 ) );
#239 = EDGE_LOOP( '', ( #303, #304, #305, #306 ) );
#240 = AXIS2_PLACEMENT_3D( '', #307, #308, #309 );
#241 = SURFACE_SIDE_STYLE( '', ( #310 ) );
#242 = EDGE_LOOP( '', ( #311, #312 ) );
#243 = EDGE_LOOP( '', ( #313, #314 ) );
#244 = AXIS2_PLACEMENT_3D( '', #315, #316, #317 );
#245 = PRE_DEFINED_MARKER( '' );
#246 = COLOUR_RGB( '', 0.689999997615810, 0.689999997615810, 0.689999997615810 );
#247 = SURFACE_SIDE_STYLE( '', ( #318 ) );
#248 = EDGE_LOOP( '', ( #319, #320, #321, #322 ) );
#249 = AXIS2_PLACEMENT_3D( '', #323, #324, #325 );
#250 = SURFACE_SIDE_STYLE( '', ( #326 ) );
#251 = EDGE_LOOP( '', ( #327, #328 ) );
#252 = EDGE_LOOP( '', ( #329, #330 ) );
#253 = AXIS2_PLACEMENT_3D( '', #331, #332, #333 );
#254 = SURFACE_SIDE_STYLE( '', ( #334 ) );
#255 = EDGE_LOOP( '', ( #335, #336, #337, #338 ) );
#256 = AXIS2_PLACEMENT_3D( '', #339, #340, #341 );
#257 = PRE_DEFINED_MARKER( '' );
#258 = COLOUR_RGB( '', 0.689999997615810, 0.689999997615810, 0.689999997615810 );
#259 = DRAUGHTING_PRE_DEFINED_CURVE_FONT( 'continuous' );
#260 = COLOUR_RGB( '', 0.689999997615810, 0.689999997615810, 0.689999997615810 );
#261 = CARTESIAN_POINT( '', ( 0.000000000000000, -3.42889779070266E-014, -280.000000000000 ) );
#262 = VECTOR( '', #342, 1.00000000000000 );
#263 = PRE_DEFINED_MARKER( '' );
#264 = COLOUR_RGB( '', 0.689999997615810, 0.689999997615810, 0.689999997615810 );
#266 = CARTESIAN_POINT( '', ( 5000.00000000000, 0.000000000000000, 0.000000000000000 ) );
#267 = DIRECTION( '', ( 1.00000000000000, 0.000000000000000, 0.000000000000000 ) );
#268 = DIRECTION( '', ( 0.000000000000000, 0.000000000000000, -1.00000000000000 ) );
#269 = SURFACE_STYLE_FILL_AREA( #343 );
#270 = ORIENTED_EDGE( '', *, *, #101, .F. );
#271 = ORIENTED_EDGE( '', *, *, #81, .T. );
#272 = ORIENTED_EDGE( '', *, *, #63, .F. );
#273 = ORIENTED_EDGE( '', *, *, #59, .T. );
#274 = CARTESIAN_POINT( '', ( 0.000000000000000, 0.000000000000000, 0.000000000000000 ) );
#275 = DIRECTION( '', ( -1.00000000000000, -0.000000000000000, -0.000000000000000 ) );
#276 = DIRECTION( '', ( 0.000000000000000, 0.000000000000000, -1.00000000000000 ) );
#277 = CARTESIAN_POINT( '', ( 5000.00000000000, 0.000000000000000, 0.000000000000000 ) );
#278 = DIRECTION( '', ( -1.00000000000000, 0.000000000000000, 0.000000000000000 ) );
#279 = DIRECTION( '', ( 0.000000000000000, 0.000000000000000, -1.00000000000000 ) );
#280 = CARTESIAN_POINT( '', ( 5000.00000000000, 0.000000000000000, 0.000000000000000 ) );
#281 = DIRECTION( '', ( -1.00000000000000, 0.000000000000000, 0.000000000000000 ) );
#282 = DIRECTION( '', ( 0.000000000000000, 0.000000000000000, -1.00000000000000 ) );
#283 = DIRECTION( '', ( -1.00000000000000, -0.000000000000000, -0.000000000000000 ) );
#284 = CARTESIAN_POINT( '', ( 5000.00000000000, 0.000000000000000, 0.000000000000000 ) );
#285 = DIRECTION( '', ( 1.00000000000000, 0.000000000000000, 0.000000000000000 ) );
#286 = DIRECTION( '', ( 0.000000000000000, 0.000000000000000, -1.00000000000000 ) );
#287 = CARTESIAN_POINT( '', ( 0.000000000000000, 0.000000000000000, 0.000000000000000 ) );
#288 = DIRECTION( '', ( 1.00000000000000, -0.000000000000000, 0.000000000000000 ) );
#289 = DIRECTION( '', ( 0.000000000000000, 0.000000000000000, -1.00000000000000 ) );
#290 = DIRECTION( '', ( 1.00000000000000, 0.000000000000000, 0.000000000000000 ) );
#291 = CARTESIAN_POINT( '', ( 0.000000000000000, 0.000000000000000, 0.000000000000000 ) );
#292 = DIRECTION( '', ( 1.00000000000000, -0.000000000000000, 0.000000000000000 ) );
#293 = DIRECTION( '', ( 0.000000000000000, 0.000000000000000, -1.00000000000000 ) );
#294 = CARTESIAN_POINT( '', ( 0.000000000000000, 0.000000000000000, 0.000000000000000 ) );
#295 = DIRECTION( '', ( 1.00000000000000, -0.000000000000000, 0.000000000000000 ) );
#296 = DIRECTION( '', ( 0.000000000000000, 0.000000000000000, -1.00000000000000 ) );
#297 = SURFACE_STYLE_FILL_AREA( #344 );
#298 = DIRECTION( '', ( -1.00000000000000, 0.000000000000000, 0.000000000000000 ) );
#299 = CARTESIAN_POINT( '', ( 0.000000000000000, 0.000000000000000, 0.000000000000000 ) );
#300 = DIRECTION( '', ( 1.00000000000000, -0.000000000000000, 0.000000000000000 ) );
#301 = DIRECTION( '', ( 0.000000000000000, 0.000000000000000, -1.00000000000000 ) );
#302 = SURFACE_STYLE_FILL_AREA( #345 );
#303 = ORIENTED_EDGE( '', *, *, #69, .F. );
#304 = ORIENTED_EDGE( '', *, *, #71, .F. );
#305 = ORIENTED_EDGE( '', *, *, #79, .F. );
#306 = ORIENTED_EDGE( '', *, *, #51, .T. );
#307 = CARTESIAN_POINT( '', ( 0.000000000000000, 0.000000000000000, 0.000000000000000 ) );
#308 = DIRECTION( '', ( -1.00000000000000, -0.000000000000000, -0.000000000000000 ) );
#309 = DIRECTION( '', ( 0.000000000000000, 0.000000000000000, -1.00000000000000 ) );
#310 = SURFACE_STYLE_FILL_AREA( #346 );
#311 = ORIENTED_EDGE( '', *, *, #57, .F. );
#312 = ORIENTED_EDGE( '', *, *, #59, .F. );
#313 = ORIENTED_EDGE( '', *, *, #65, .F. );
#314 = ORIENTED_EDGE( '', *, *, #51, .F. );
#315 = CARTESIAN_POINT( '', ( 5000.00000000000, 0.000000000000000, 0.000000000000000 ) );
#316 = DIRECTION( '', ( 1.00000000000000, 0.000000000000000, 0.000000000000000 ) );
#317 = DIRECTION( '', ( 0.000000000000000, 0.000000000000000, -1.00000000000000 ) );
#318 = SURFACE_STYLE_FILL_AREA( #347 );
#319 = ORIENTED_EDGE( '', *, *, #101, .T. );
#320 = ORIENTED_EDGE( '', *, *, #57, .T. );
#321 = ORIENTED_EDGE( '', *, *, #63, .T. );
#322 = ORIENTED_EDGE( '', *, *, #67, .T. );
#323 = CARTESIAN_POINT( '', ( 0.000000000000000, 0.000000000000000, 0.000000000000000 ) );
#324 = DIRECTION( '', ( -1.00000000000000, -0.000000000000000, -0.000000000000000 ) );
#325 = DIRECTION( '', ( 0.000000000000000, 0.000000000000000, -1.00000000000000 ) );
#326 = SURFACE_STYLE_FILL_AREA( #348 );
#327 = ORIENTED_EDGE( '', *, *, #81, .F. );
#328 = ORIENTED_EDGE( '', *, *, #67, .F. );
#329 = ORIENTED_EDGE( '', *, *, #73, .T. );
#330 = ORIENTED_EDGE( '', *, *, #71, .T. );
#331 = CARTESIAN_POINT( '', ( 0.000000000000000, 0.000000000000000, 0.000000000000000 ) );
#332 = DIRECTION( '', ( 1.00000000000000, 0.000000000000000, 0.000000000000000 ) );
#333 = DIRECTION( '', ( 0.000000000000000, 0.000000000000000, -1.00000000000000 ) );
#334 = SURFACE_STYLE_FILL_AREA( #349 );
#335 = ORIENTED_EDGE( '', *, *, #69, .T. );
#336 = ORIENTED_EDGE( '', *, *, #65, .T. );
#337 = ORIENTED_EDGE( '', *, *, #79, .T. );
#338 = ORIENTED_EDGE( '', *, *, #73, .F. );
#339 = CARTESIAN_POINT( '', ( 0.000000000000000, 0.000000000000000, 0.000000000000000 ) );
#340 = DIRECTION( '', ( -1.00000000000000, -0.000000000000000, -0.000000000000000 ) );
#341 = DIRECTION( '', ( 0.000000000000000, 0.000000000000000, -1.00000000000000 ) );
#342 = DIRECTION( '', ( 1.00000000000000, 0.000000000000000, 0.000000000000000 ) );
#343 = FILL_AREA_STYLE( '', ( #350 ) );
#344 = FILL_AREA_STYLE( '', ( #351 ) );
#345 = FILL_AREA_STYLE( '', ( #352 ) );
#346 = FILL_AREA_STYLE( '', ( #353 ) );
#347 = FILL_AREA_STYLE( '', ( #354 ) );
#348 = FILL_AREA_STYLE( '', ( #355 ) );
#349 = FILL_AREA_STYLE( '', ( #356 ) );
#350 = FILL_AREA_STYLE_COLOUR( '', #357 );
#351 = FILL_AREA_STYLE_COLOUR( '', #358 );
#352 = FILL_AREA_STYLE_COLOUR( '', #359 );
#353 = FILL_AREA_STYLE_COLOUR( '', #360 );
#354 = FILL_AREA_STYLE_COLOUR( '', #361 );
#355 = FILL_AREA_STYLE_COLOUR( '', #362 );
#356 = FILL_AREA_STYLE_COLOUR( '', #363 );
#357 = COLOUR_RGB( '', 0.689999997615810, 0.689999997615810, 0.689999997615810 );
#358 = COLOUR_RGB( '', 0.689999997615810, 0.689999997615810, 0.689999997615810 );
#359 = COLOUR_RGB( '', 0.689999997615810, 0.689999997615810, 0.689999997615810 );
#360 = COLOUR_RGB( '', 0.689999997615810, 0.689999997615810, 0.689999997615810 );
#361 = COLOUR_RGB( '', 0.689999997615810, 0.689999997615810, 0.689999997615810 );
#362 = COLOUR_RGB( '', 0.689999997615810, 0.689999997615810, 0.689999997615810 );
#363 = COLOUR_RGB( '', 0.689999997615810, 0.689999997615810, 0.689999997615810 );
ENDSEC;
END-ISO-10303-21;
