ISO-10303-21;
HEADER;
FILE_DESCRIPTION( ( '' ), '1' );
FILE_NAME( '//se01002/users/anro/AGRU_25705056011_PE_100_schwarz_Rohr__5m_560X50_8__SDR11__ISO_S-5_05.stp', '2017-12-11T09:38:01', ( '' ), ( '' ), ' ', ' ', ' ' );
FILE_SCHEMA( ( 'automotive_design' ) );
ENDSEC;
DATA;
#1 = MECHANICAL_DESIGN_GEOMETRIC_PRESENTATION_REPRESENTATION( ' ', ( #10, #11, #12, #13, #14, #15, #16, #17, #18, #19, #20, #21, #22, #23, #24, #25, #26, #27, #28, #29, #30, #31, #32, #33, #34, #35, #36 ), #6 );
#2 = PRODUCT_DEFINITION_CONTEXT( '', #37, 'design' );
#3 = APPLICATION_PROTOCOL_DEFINITION( 'INTERNATIONAL STANDARD', 'automotive_design', 1994, #37 );
#4 = PRODUCT_CATEGORY_RELATIONSHIP( 'NONE', 'NONE', #38, #39 );
#5 = SHAPE_DEFINITION_REPRESENTATION( #40, #41 );
#6 =  ( GEOMETRIC_REPRESENTATION_CONTEXT( 3 )GLOBAL_UNCERTAINTY_ASSIGNED_CONTEXT( ( #44 ) )GLOBAL_UNIT_ASSIGNED_CONTEXT( ( #46, #47, #48 ) )REPRESENTATION_CONTEXT( 'NONE', 'WORKSPACE' ) );
#10 = STYLED_ITEM( '', ( #50 ), #51 );
#11 = STYLED_ITEM( '', ( #52 ), #53 );
#12 = STYLED_ITEM( '', ( #54 ), #55 );
#13 = STYLED_ITEM( '', ( #56 ), #57 );
#14 = STYLED_ITEM( '', ( #58 ), #59 );
#15 = STYLED_ITEM( '', ( #60 ), #61 );
#16 = STYLED_ITEM( '', ( #62 ), #63 );
#17 = STYLED_ITEM( '', ( #64 ), #65 );
#18 = STYLED_ITEM( '', ( #66 ), #67 );
#19 = STYLED_ITEM( '', ( #68 ), #69 );
#20 = STYLED_ITEM( '', ( #70 ), #71 );
#21 = STYLED_ITEM( '', ( #72 ), #73 );
#22 = STYLED_ITEM( '', ( #74 ), #75 );
#23 = STYLED_ITEM( '', ( #76 ), #77 );
#24 = STYLED_ITEM( '', ( #78 ), #79 );
#25 = STYLED_ITEM( '', ( #80 ), #81 );
#26 = STYLED_ITEM( '', ( #82 ), #83 );
#27 = STYLED_ITEM( '', ( #84 ), #85 );
#28 = STYLED_ITEM( '', ( #86 ), #87 );
#29 = STYLED_ITEM( '', ( #88 ), #89 );
#30 = STYLED_ITEM( '', ( #90 ), #91 );
#31 = STYLED_ITEM( '', ( #92 ), #93 );
#32 = STYLED_ITEM( '', ( #94 ), #95 );
#33 = STYLED_ITEM( '', ( #96 ), #97 );
#34 = STYLED_ITEM( '', ( #98 ), #99 );
#35 = STYLED_ITEM( '', ( #100 ), #101 );
#36 = STYLED_ITEM( '', ( #102 ), #103 );
#37 = APPLICATION_CONTEXT( ' ' );
#38 = PRODUCT_CATEGORY( 'part', 'NONE' );
#39 = PRODUCT_RELATED_PRODUCT_CATEGORY( 'detail', ' ', ( #104 ) );
#40 = PRODUCT_DEFINITION_SHAPE( 'NONE', 'NONE', #105 );
#41 = ADVANCED_BREP_SHAPE_REPRESENTATION( '1', ( #79, #106 ), #6 );
#44 = UNCERTAINTY_MEASURE_WITH_UNIT( LENGTH_MEASURE( 1.00000000000000E-006 ), #46, '', '' );
#46 =  ( CONVERSION_BASED_UNIT( 'MILLIMETRE', #109 )LENGTH_UNIT(  )NAMED_UNIT( #112 ) );
#47 =  ( NAMED_UNIT( #114 )PLANE_ANGLE_UNIT(  )SI_UNIT( $, .RADIAN. ) );
#48 =  ( NAMED_UNIT( #114 )SOLID_ANGLE_UNIT(  )SI_UNIT( $, .STERADIAN. ) );
#50 = PRESENTATION_STYLE_ASSIGNMENT( ( #120 ) );
#51 = EDGE_CURVE( '', #57, #87, #121, .T. );
#52 = PRESENTATION_STYLE_ASSIGNMENT( ( #122 ) );
#53 = EDGE_CURVE( '', #57, #59, #123, .T. );
#54 = PRESENTATION_STYLE_ASSIGNMENT( ( #124 ) );
#55 = ADVANCED_FACE( '', ( #125 ), #126, .T. );
#56 = PRESENTATION_STYLE_ASSIGNMENT( ( #127 ) );
#57 = VERTEX_POINT( '', #128 );
#58 = PRESENTATION_STYLE_ASSIGNMENT( ( #129 ) );
#59 = VERTEX_POINT( '', #130 );
#60 = PRESENTATION_STYLE_ASSIGNMENT( ( #131 ) );
#61 = VERTEX_POINT( '', #132 );
#62 = PRESENTATION_STYLE_ASSIGNMENT( ( #133 ) );
#63 = ADVANCED_FACE( '', ( #134, #135 ), #136, .F. );
#64 = PRESENTATION_STYLE_ASSIGNMENT( ( #137 ) );
#65 = EDGE_CURVE( '', #69, #103, #138, .T. );
#66 = PRESENTATION_STYLE_ASSIGNMENT( ( #139 ) );
#67 = EDGE_CURVE( '', #89, #73, #140, .T. );
#68 = PRESENTATION_STYLE_ASSIGNMENT( ( #141 ) );
#69 = VERTEX_POINT( '', #142 );
#70 = PRESENTATION_STYLE_ASSIGNMENT( ( #143 ) );
#71 = EDGE_CURVE( '', #103, #69, #144, .T. );
#72 = PRESENTATION_STYLE_ASSIGNMENT( ( #145 ) );
#73 = VERTEX_POINT( '', #146 );
#74 = PRESENTATION_STYLE_ASSIGNMENT( ( #147 ) );
#75 = ADVANCED_FACE( '', ( #148, #149 ), #150, .T. );
#76 = PRESENTATION_STYLE_ASSIGNMENT( ( #151 ) );
#77 = EDGE_CURVE( '', #89, #103, #152, .T. );
#78 = PRESENTATION_STYLE_ASSIGNMENT( ( #153 ) );
#79 = MANIFOLD_SOLID_BREP( '1', #154 );
#80 = PRESENTATION_STYLE_ASSIGNMENT( ( #155 ) );
#81 = ADVANCED_FACE( '', ( #156 ), #157, .T. );
#82 = PRESENTATION_STYLE_ASSIGNMENT( ( #158 ) );
#83 = EDGE_CURVE( '', #73, #89, #159, .T. );
#84 = PRESENTATION_STYLE_ASSIGNMENT( ( #160 ) );
#85 = EDGE_CURVE( '', #61, #59, #161, .T. );
#86 = PRESENTATION_STYLE_ASSIGNMENT( ( #162 ) );
#87 = VERTEX_POINT( '', #163 );
#88 = PRESENTATION_STYLE_ASSIGNMENT( ( #164 ) );
#89 = VERTEX_POINT( '', #165 );
#90 = PRESENTATION_STYLE_ASSIGNMENT( ( #166 ) );
#91 = EDGE_CURVE( '', #59, #57, #167, .T. );
#92 = PRESENTATION_STYLE_ASSIGNMENT( ( #168 ) );
#93 = EDGE_CURVE( '', #61, #87, #169, .T. );
#94 = PRESENTATION_STYLE_ASSIGNMENT( ( #170 ) );
#95 = ADVANCED_FACE( '', ( #171 ), #172, .F. );
#96 = PRESENTATION_STYLE_ASSIGNMENT( ( #173 ) );
#97 = EDGE_CURVE( '', #69, #73, #174, .T. );
#98 = PRESENTATION_STYLE_ASSIGNMENT( ( #175 ) );
#99 = ADVANCED_FACE( '', ( #176 ), #177, .F. );
#100 = PRESENTATION_STYLE_ASSIGNMENT( ( #178 ) );
#101 = EDGE_CURVE( '', #87, #61, #179, .T. );
#102 = PRESENTATION_STYLE_ASSIGNMENT( ( #180 ) );
#103 = VERTEX_POINT( '', #181 );
#104 = PRODUCT( '1', '1', 'PART-1-DESC', ( #182 ) );
#105 = PRODUCT_DEFINITION( 'NONE', 'NONE', #183, #2 );
#106 = AXIS2_PLACEMENT_3D( '', #184, #185, #186 );
#109 = LENGTH_MEASURE_WITH_UNIT( LENGTH_MEASURE( 1.00000000000000 ), #187 );
#112 = DIMENSIONAL_EXPONENTS( 1.00000000000000, 0.000000000000000, 0.000000000000000, 0.000000000000000, 0.000000000000000, 0.000000000000000, 0.000000000000000 );
#114 = DIMENSIONAL_EXPONENTS( 0.000000000000000, 0.000000000000000, 0.000000000000000, 0.000000000000000, 0.000000000000000, 0.000000000000000, 0.000000000000000 );
#120 = CURVE_STYLE( '', #188, POSITIVE_LENGTH_MEASURE( 1.00000000000000E-006 ), #189 );
#121 = LINE( '', #190, #191 );
#122 = CURVE_STYLE( '', #192, POSITIVE_LENGTH_MEASURE( 1.00000000000000E-006 ), #193 );
#123 = CIRCLE( '', #194, 280.000000000000 );
#124 = SURFACE_STYLE_USAGE( .BOTH., #195 );
#125 = FACE_OUTER_BOUND( '', #196, .T. );
#126 = CYLINDRICAL_SURFACE( '', #197, 280.000000000000 );
#127 = POINT_STYLE( ' ', #198, POSITIVE_LENGTH_MEASURE( 1.00000000000000E-006 ), #199 );
#128 = CARTESIAN_POINT( '', ( 5000.00000000000, 3.42889779070266E-014, 280.000000000000 ) );
#129 = POINT_STYLE( ' ', #200, POSITIVE_LENGTH_MEASURE( 1.00000000000000E-006 ), #201 );
#130 = CARTESIAN_POINT( '', ( 5000.00000000000, 0.000000000000000, -280.000000000000 ) );
#131 = POINT_STYLE( ' ', #202, POSITIVE_LENGTH_MEASURE( 1.00000000000000E-006 ), #203 );
#132 = CARTESIAN_POINT( '', ( 0.000000000000000, 0.000000000000000, -280.000000000000 ) );
#133 = SURFACE_STYLE_USAGE( .BOTH., #204 );
#134 = FACE_OUTER_BOUND( '', #205, .T. );
#135 = FACE_BOUND( '', #206, .T. );
#136 = PLANE( '', #207 );
#137 = CURVE_STYLE( '', #208, POSITIVE_LENGTH_MEASURE( 1.00000000000000E-006 ), #209 );
#138 = CIRCLE( '', #210, 229.200000000000 );
#139 = CURVE_STYLE( '', #211, POSITIVE_LENGTH_MEASURE( 1.00000000000000E-006 ), #212 );
#140 = CIRCLE( '', #213, 229.200000000000 );
#141 = POINT_STYLE( ' ', #214, POSITIVE_LENGTH_MEASURE( 1.00000000000000E-006 ), #215 );
#142 = CARTESIAN_POINT( '', ( 5000.00000000000, 2.80679776296089E-014, 229.200000000000 ) );
#143 = CURVE_STYLE( '', #216, POSITIVE_LENGTH_MEASURE( 1.00000000000000E-006 ), #217 );
#144 = CIRCLE( '', #218, 229.200000000000 );
#145 = POINT_STYLE( ' ', #219, POSITIVE_LENGTH_MEASURE( 1.00000000000000E-006 ), #220 );
#146 = CARTESIAN_POINT( '', ( 0.000000000000000, 2.80679776296089E-014, 229.200000000000 ) );
#147 = SURFACE_STYLE_USAGE( .BOTH., #221 );
#148 = FACE_OUTER_BOUND( '', #222, .T. );
#149 = FACE_BOUND( '', #223, .T. );
#150 = PLANE( '', #224 );
#151 = CURVE_STYLE( '', #225, POSITIVE_LENGTH_MEASURE( 1.00000000000000E-006 ), #226 );
#152 = LINE( '', #227, #228 );
#153 = SURFACE_STYLE_USAGE( .BOTH., #229 );
#154 = CLOSED_SHELL( '', ( #55, #95, #99, #81, #75, #63 ) );
#155 = SURFACE_STYLE_USAGE( .BOTH., #230 );
#156 = FACE_OUTER_BOUND( '', #231, .T. );
#157 = CYLINDRICAL_SURFACE( '', #232, 280.000000000000 );
#158 = CURVE_STYLE( '', #233, POSITIVE_LENGTH_MEASURE( 1.00000000000000E-006 ), #234 );
#159 = CIRCLE( '', #235, 229.200000000000 );
#160 = CURVE_STYLE( '', #236, POSITIVE_LENGTH_MEASURE( 1.00000000000000E-006 ), #237 );
#161 = LINE( '', #238, #239 );
#162 = POINT_STYLE( ' ', #240, POSITIVE_LENGTH_MEASURE( 1.00000000000000E-006 ), #241 );
#163 = CARTESIAN_POINT( '', ( 0.000000000000000, 3.42889779070266E-014, 280.000000000000 ) );
#164 = POINT_STYLE( ' ', #242, POSITIVE_LENGTH_MEASURE( 1.00000000000000E-006 ), #243 );
#165 = CARTESIAN_POINT( '', ( 0.000000000000000, 0.000000000000000, -229.200000000000 ) );
#166 = CURVE_STYLE( '', #244, POSITIVE_LENGTH_MEASURE( 1.00000000000000E-006 ), #245 );
#167 = CIRCLE( '', #246, 280.000000000000 );
#168 = CURVE_STYLE( '', #247, POSITIVE_LENGTH_MEASURE( 1.00000000000000E-006 ), #248 );
#169 = CIRCLE( '', #249, 280.000000000000 );
#170 = SURFACE_STYLE_USAGE( .BOTH., #250 );
#171 = FACE_OUTER_BOUND( '', #251, .T. );
#172 = CYLINDRICAL_SURFACE( '', #252, 229.200000000000 );
#173 = CURVE_STYLE( '', #253, POSITIVE_LENGTH_MEASURE( 1.00000000000000E-006 ), #254 );
#174 = LINE( '', #255, #256 );
#175 = SURFACE_STYLE_USAGE( .BOTH., #257 );
#176 = FACE_OUTER_BOUND( '', #258, .T. );
#177 = CYLINDRICAL_SURFACE( '', #259, 229.200000000000 );
#178 = CURVE_STYLE( '', #260, POSITIVE_LENGTH_MEASURE( 1.00000000000000E-006 ), #261 );
#179 = CIRCLE( '', #262, 280.000000000000 );
#180 = POINT_STYLE( ' ', #263, POSITIVE_LENGTH_MEASURE( 1.00000000000000E-006 ), #264 );
#181 = CARTESIAN_POINT( '', ( 5000.00000000000, 0.000000000000000, -229.200000000000 ) );
#182 = PRODUCT_CONTEXT( '', #37, 'mechanical' );
#183 = PRODUCT_DEFINITION_FORMATION_WITH_SPECIFIED_SOURCE( ' ', 'NONE', #104, .NOT_KNOWN. );
#184 = CARTESIAN_POINT( '', ( 0.000000000000000, 0.000000000000000, 0.000000000000000 ) );
#185 = DIRECTION( '', ( 0.000000000000000, 0.000000000000000, 1.00000000000000 ) );
#186 = DIRECTION( '', ( 1.00000000000000, 0.000000000000000, 0.000000000000000 ) );
#187 =  ( NAMED_UNIT( #112 )LENGTH_UNIT(  )SI_UNIT( .MILLI., .METRE. ) );
#188 = DRAUGHTING_PRE_DEFINED_CURVE_FONT( 'continuous' );
#189 = COLOUR_RGB( '', 0.689999997615810, 0.689999997615810, 0.689999997615810 );
#190 = CARTESIAN_POINT( '', ( 0.000000000000000, 3.42889779070266E-014, 280.000000000000 ) );
#191 = VECTOR( '', #266, 1.00000000000000 );
#192 = DRAUGHTING_PRE_DEFINED_CURVE_FONT( 'continuous' );
#193 = COLOUR_RGB( '', 0.689999997615810, 0.689999997615810, 0.689999997615810 );
#194 = AXIS2_PLACEMENT_3D( '', #267, #268, #269 );
#195 = SURFACE_SIDE_STYLE( '', ( #270 ) );
#196 = EDGE_LOOP( '', ( #271, #272, #273, #274 ) );
#197 = AXIS2_PLACEMENT_3D( '', #275, #276, #277 );
#198 = PRE_DEFINED_MARKER( '' );
#199 = COLOUR_RGB( '', 0.689999997615810, 0.689999997615810, 0.689999997615810 );
#200 = PRE_DEFINED_MARKER( '' );
#201 = COLOUR_RGB( '', 0.689999997615810, 0.689999997615810, 0.689999997615810 );
#202 = PRE_DEFINED_MARKER( '' );
#203 = COLOUR_RGB( '', 0.689999997615810, 0.689999997615810, 0.689999997615810 );
#204 = SURFACE_SIDE_STYLE( '', ( #278 ) );
#205 = EDGE_LOOP( '', ( #279, #280 ) );
#206 = EDGE_LOOP( '', ( #281, #282 ) );
#207 = AXIS2_PLACEMENT_3D( '', #283, #284, #285 );
#208 = DRAUGHTING_PRE_DEFINED_CURVE_FONT( 'continuous' );
#209 = COLOUR_RGB( '', 0.689999997615810, 0.689999997615810, 0.689999997615810 );
#210 = AXIS2_PLACEMENT_3D( '', #286, #287, #288 );
#211 = DRAUGHTING_PRE_DEFINED_CURVE_FONT( 'continuous' );
#212 = COLOUR_RGB( '', 0.689999997615810, 0.689999997615810, 0.689999997615810 );
#213 = AXIS2_PLACEMENT_3D( '', #289, #290, #291 );
#214 = PRE_DEFINED_MARKER( '' );
#215 = COLOUR_RGB( '', 0.689999997615810, 0.689999997615810, 0.689999997615810 );
#216 = DRAUGHTING_PRE_DEFINED_CURVE_FONT( 'continuous' );
#217 = COLOUR_RGB( '', 0.689999997615810, 0.689999997615810, 0.689999997615810 );
#218 = AXIS2_PLACEMENT_3D( '', #292, #293, #294 );
#219 = PRE_DEFINED_MARKER( '' );
#220 = COLOUR_RGB( '', 0.689999997615810, 0.689999997615810, 0.689999997615810 );
#221 = SURFACE_SIDE_STYLE( '', ( #295 ) );
#222 = EDGE_LOOP( '', ( #296, #297 ) );
#223 = EDGE_LOOP( '', ( #298, #299 ) );
#224 = AXIS2_PLACEMENT_3D( '', #300, #301, #302 );
#225 = DRAUGHTING_PRE_DEFINED_CURVE_FONT( 'continuous' );
#226 = COLOUR_RGB( '', 0.689999997615810, 0.689999997615810, 0.689999997615810 );
#227 = CARTESIAN_POINT( '', ( 0.000000000000000, -2.80679776296089E-014, -229.200000000000 ) );
#228 = VECTOR( '', #303, 1.00000000000000 );
#229 = SURFACE_SIDE_STYLE( '', ( #304 ) );
#230 = SURFACE_SIDE_STYLE( '', ( #305 ) );
#231 = EDGE_LOOP( '', ( #306, #307, #308, #309 ) );
#232 = AXIS2_PLACEMENT_3D( '', #310, #311, #312 );
#233 = DRAUGHTING_PRE_DEFINED_CURVE_FONT( 'continuous' );
#234 = COLOUR_RGB( '', 0.689999997615810, 0.689999997615810, 0.689999997615810 );
#235 = AXIS2_PLACEMENT_3D( '', #313, #314, #315 );
#236 = DRAUGHTING_PRE_DEFINED_CURVE_FONT( 'continuous' );
#237 = COLOUR_RGB( '', 0.689999997615810, 0.689999997615810, 0.689999997615810 );
#238 = CARTESIAN_POINT( '', ( 0.000000000000000, -3.42889779070266E-014, -280.000000000000 ) );
#239 = VECTOR( '', #316, 1.00000000000000 );
#240 = PRE_DEFINED_MARKER( '' );
#241 = COLOUR_RGB( '', 0.689999997615810, 0.689999997615810, 0.689999997615810 );
#242 = PRE_DEFINED_MARKER( '' );
#243 = COLOUR_RGB( '', 0.689999997615810, 0.689999997615810, 0.689999997615810 );
#244 = DRAUGHTING_PRE_DEFINED_CURVE_FONT( 'continuous' );
#245 = COLOUR_RGB( '', 0.689999997615810, 0.689999997615810, 0.689999997615810 );
#246 = AXIS2_PLACEMENT_3D( '', #317, #318, #319 );
#247 = DRAUGHTING_PRE_DEFINED_CURVE_FONT( 'continuous' );
#248 = COLOUR_RGB( '', 0.689999997615810, 0.689999997615810, 0.689999997615810 );
#249 = AXIS2_PLACEMENT_3D( '', #320, #321, #322 );
#250 = SURFACE_SIDE_STYLE( '', ( #323 ) );
#251 = EDGE_LOOP( '', ( #324, #325, #326, #327 ) );
#252 = AXIS2_PLACEMENT_3D( '', #328, #329, #330 );
#253 = DRAUGHTING_PRE_DEFINED_CURVE_FONT( 'continuous' );
#254 = COLOUR_RGB( '', 0.689999997615810, 0.689999997615810, 0.689999997615810 );
#255 = CARTESIAN_POINT( '', ( 0.000000000000000, 2.80679776296089E-014, 229.200000000000 ) );
#256 = VECTOR( '', #331, 1.00000000000000 );
#257 = SURFACE_SIDE_STYLE( '', ( #332 ) );
#258 = EDGE_LOOP( '', ( #333, #334, #335, #336 ) );
#259 = AXIS2_PLACEMENT_3D( '', #337, #338, #339 );
#260 = DRAUGHTING_PRE_DEFINED_CURVE_FONT( 'continuous' );
#261 = COLOUR_RGB( '', 0.689999997615810, 0.689999997615810, 0.689999997615810 );
#262 = AXIS2_PLACEMENT_3D( '', #340, #341, #342 );
#263 = PRE_DEFINED_MARKER( '' );
#264 = COLOUR_RGB( '', 0.689999997615810, 0.689999997615810, 0.689999997615810 );
#266 = DIRECTION( '', ( -1.00000000000000, -0.000000000000000, -0.000000000000000 ) );
#267 = CARTESIAN_POINT( '', ( 5000.00000000000, 0.000000000000000, 0.000000000000000 ) );
#268 = DIRECTION( '', ( -1.00000000000000, 0.000000000000000, 0.000000000000000 ) );
#269 = DIRECTION( '', ( 0.000000000000000, 0.000000000000000, -1.00000000000000 ) );
#270 = SURFACE_STYLE_FILL_AREA( #343 );
#271 = ORIENTED_EDGE( '', *, *, #85, .F. );
#272 = ORIENTED_EDGE( '', *, *, #93, .T. );
#273 = ORIENTED_EDGE( '', *, *, #51, .F. );
#274 = ORIENTED_EDGE( '', *, *, #53, .T. );
#275 = CARTESIAN_POINT( '', ( 0.000000000000000, 0.000000000000000, 0.000000000000000 ) );
#276 = DIRECTION( '', ( -1.00000000000000, -0.000000000000000, -0.000000000000000 ) );
#277 = DIRECTION( '', ( 0.000000000000000, 0.000000000000000, -1.00000000000000 ) );
#278 = SURFACE_STYLE_FILL_AREA( #344 );
#279 = ORIENTED_EDGE( '', *, *, #93, .F. );
#280 = ORIENTED_EDGE( '', *, *, #101, .F. );
#281 = ORIENTED_EDGE( '', *, *, #67, .T. );
#282 = ORIENTED_EDGE( '', *, *, #83, .T. );
#283 = CARTESIAN_POINT( '', ( 0.000000000000000, 0.000000000000000, 0.000000000000000 ) );
#284 = DIRECTION( '', ( 1.00000000000000, 0.000000000000000, 0.000000000000000 ) );
#285 = DIRECTION( '', ( 0.000000000000000, 0.000000000000000, -1.00000000000000 ) );
#286 = CARTESIAN_POINT( '', ( 5000.00000000000, 0.000000000000000, 0.000000000000000 ) );
#287 = DIRECTION( '', ( 1.00000000000000, 0.000000000000000, 0.000000000000000 ) );
#288 = DIRECTION( '', ( 0.000000000000000, 0.000000000000000, -1.00000000000000 ) );
#289 = CARTESIAN_POINT( '', ( 0.000000000000000, 0.000000000000000, 0.000000000000000 ) );
#290 = DIRECTION( '', ( 1.00000000000000, -0.000000000000000, 0.000000000000000 ) );
#291 = DIRECTION( '', ( 0.000000000000000, 0.000000000000000, -1.00000000000000 ) );
#292 = CARTESIAN_POINT( '', ( 5000.00000000000, 0.000000000000000, 0.000000000000000 ) );
#293 = DIRECTION( '', ( 1.00000000000000, 0.000000000000000, 0.000000000000000 ) );
#294 = DIRECTION( '', ( 0.000000000000000, 0.000000000000000, -1.00000000000000 ) );
#295 = SURFACE_STYLE_FILL_AREA( #345 );
#296 = ORIENTED_EDGE( '', *, *, #91, .F. );
#297 = ORIENTED_EDGE( '', *, *, #53, .F. );
#298 = ORIENTED_EDGE( '', *, *, #71, .F. );
#299 = ORIENTED_EDGE( '', *, *, #65, .F. );
#300 = CARTESIAN_POINT( '', ( 5000.00000000000, 0.000000000000000, 0.000000000000000 ) );
#301 = DIRECTION( '', ( 1.00000000000000, 0.000000000000000, 0.000000000000000 ) );
#302 = DIRECTION( '', ( 0.000000000000000, 0.000000000000000, -1.00000000000000 ) );
#303 = DIRECTION( '', ( 1.00000000000000, 0.000000000000000, 0.000000000000000 ) );
#304 = SURFACE_STYLE_FILL_AREA( #346 );
#305 = SURFACE_STYLE_FILL_AREA( #347 );
#306 = ORIENTED_EDGE( '', *, *, #85, .T. );
#307 = ORIENTED_EDGE( '', *, *, #91, .T. );
#308 = ORIENTED_EDGE( '', *, *, #51, .T. );
#309 = ORIENTED_EDGE( '', *, *, #101, .T. );
#310 = CARTESIAN_POINT( '', ( 0.000000000000000, 0.000000000000000, 0.000000000000000 ) );
#311 = DIRECTION( '', ( -1.00000000000000, -0.000000000000000, -0.000000000000000 ) );
#312 = DIRECTION( '', ( 0.000000000000000, 0.000000000000000, -1.00000000000000 ) );
#313 = CARTESIAN_POINT( '', ( 0.000000000000000, 0.000000000000000, 0.000000000000000 ) );
#314 = DIRECTION( '', ( 1.00000000000000, -0.000000000000000, 0.000000000000000 ) );
#315 = DIRECTION( '', ( 0.000000000000000, 0.000000000000000, -1.00000000000000 ) );
#316 = DIRECTION( '', ( 1.00000000000000, 0.000000000000000, 0.000000000000000 ) );
#317 = CARTESIAN_POINT( '', ( 5000.00000000000, 0.000000000000000, 0.000000000000000 ) );
#318 = DIRECTION( '', ( -1.00000000000000, 0.000000000000000, 0.000000000000000 ) );
#319 = DIRECTION( '', ( 0.000000000000000, 0.000000000000000, -1.00000000000000 ) );
#320 = CARTESIAN_POINT( '', ( 0.000000000000000, 0.000000000000000, 0.000000000000000 ) );
#321 = DIRECTION( '', ( 1.00000000000000, -0.000000000000000, 0.000000000000000 ) );
#322 = DIRECTION( '', ( 0.000000000000000, 0.000000000000000, -1.00000000000000 ) );
#323 = SURFACE_STYLE_FILL_AREA( #348 );
#324 = ORIENTED_EDGE( '', *, *, #77, .F. );
#325 = ORIENTED_EDGE( '', *, *, #83, .F. );
#326 = ORIENTED_EDGE( '', *, *, #97, .F. );
#327 = ORIENTED_EDGE( '', *, *, #65, .T. );
#328 = CARTESIAN_POINT( '', ( 0.000000000000000, 0.000000000000000, 0.000000000000000 ) );
#329 = DIRECTION( '', ( -1.00000000000000, -0.000000000000000, -0.000000000000000 ) );
#330 = DIRECTION( '', ( 0.000000000000000, 0.000000000000000, -1.00000000000000 ) );
#331 = DIRECTION( '', ( -1.00000000000000, 0.000000000000000, 0.000000000000000 ) );
#332 = SURFACE_STYLE_FILL_AREA( #349 );
#333 = ORIENTED_EDGE( '', *, *, #77, .T. );
#334 = ORIENTED_EDGE( '', *, *, #71, .T. );
#335 = ORIENTED_EDGE( '', *, *, #97, .T. );
#336 = ORIENTED_EDGE( '', *, *, #67, .F. );
#337 = CARTESIAN_POINT( '', ( 0.000000000000000, 0.000000000000000, 0.000000000000000 ) );
#338 = DIRECTION( '', ( -1.00000000000000, -0.000000000000000, -0.000000000000000 ) );
#339 = DIRECTION( '', ( 0.000000000000000, 0.000000000000000, -1.00000000000000 ) );
#340 = CARTESIAN_POINT( '', ( 0.000000000000000, 0.000000000000000, 0.000000000000000 ) );
#341 = DIRECTION( '', ( 1.00000000000000, -0.000000000000000, 0.000000000000000 ) );
#342 = DIRECTION( '', ( 0.000000000000000, 0.000000000000000, -1.00000000000000 ) );
#343 = FILL_AREA_STYLE( '', ( #350 ) );
#344 = FILL_AREA_STYLE( '', ( #351 ) );
#345 = FILL_AREA_STYLE( '', ( #352 ) );
#346 = FILL_AREA_STYLE( '', ( #353 ) );
#347 = FILL_AREA_STYLE( '', ( #354 ) );
#348 = FILL_AREA_STYLE( '', ( #355 ) );
#349 = FILL_AREA_STYLE( '', ( #356 ) );
#350 = FILL_AREA_STYLE_COLOUR( '', #357 );
#351 = FILL_AREA_STYLE_COLOUR( '', #358 );
#352 = FILL_AREA_STYLE_COLOUR( '', #359 );
#353 = FILL_AREA_STYLE_COLOUR( '', #360 );
#354 = FILL_AREA_STYLE_COLOUR( '', #361 );
#355 = FILL_AREA_STYLE_COLOUR( '', #362 );
#356 = FILL_AREA_STYLE_COLOUR( '', #363 );
#357 = COLOUR_RGB( '', 0.689999997615810, 0.689999997615810, 0.689999997615810 );
#358 = COLOUR_RGB( '', 0.689999997615810, 0.689999997615810, 0.689999997615810 );
#359 = COLOUR_RGB( '', 0.689999997615810, 0.689999997615810, 0.689999997615810 );
#360 = COLOUR_RGB( '', 0.689999997615810, 0.689999997615810, 0.689999997615810 );
#361 = COLOUR_RGB( '', 0.689999997615810, 0.689999997615810, 0.689999997615810 );
#362 = COLOUR_RGB( '', 0.689999997615810, 0.689999997615810, 0.689999997615810 );
#363 = COLOUR_RGB( '', 0.689999997615810, 0.689999997615810, 0.689999997615810 );
ENDSEC;
END-ISO-10303-21;
