ISO-10303-21;
HEADER;
/* Generated by software containing ST-Developer
 * from STEP Tools, Inc. (www.steptools.com) 
 */

FILE_DESCRIPTION(
/* description */ (''),
/* implementation_level */ '2;1');

FILE_NAME(
/* name */ 'C:\\Users\\Gabriele\\Desktop\\catalogo\\TR40\\TR40063F.stp',

/* time_stamp */ '2016-10-17T15:42:16+02:00',
/* author */ ('Gabriele'),
/* organization */ (''),
/* preprocessor_version */ 'ST-DEVELOPER v16.5',
/* originating_system */ 'Autodesk Inventor 2017',
/* authorisation */ '');

FILE_SCHEMA (('AUTOMOTIVE_DESIGN { 1 0 10303 214 3 1 1 }'));
ENDSEC;

DATA;
#10=MECHANICAL_DESIGN_GEOMETRIC_PRESENTATION_REPRESENTATION('',(#13),#481);
#11=SHAPE_REPRESENTATION_RELATIONSHIP('SRR','None',#490,#12);
#12=ADVANCED_BREP_SHAPE_REPRESENTATION('',(#14),#480);
#13=STYLED_ITEM('',(#499),#14);
#14=MANIFOLD_SOLID_BREP('Solido1',#200);
#15=B_SPLINE_CURVE_WITH_KNOTS('',3,(#333,#334,#335,#336,#337,#338,#339,
#340,#341,#342,#343,#344,#345,#346,#347,#348,#349,#350,#351,#352,#353,#354,
#355,#356,#357,#358,#359,#360,#361,#362,#363,#364,#365,#366,#367,#368,#369,
#370,#371,#372,#373,#374,#375,#376,#377,#378,#379,#380,#381,#382,#383,#384,
#385,#386,#387,#388,#389,#390,#391,#392,#393,#394,#395,#396,#397,#398),
 .UNSPECIFIED.,.T.,.F.,(4,2,2,2,2,2,2,2,2,2,2,2,2,2,2,2,2,2,2,2,2,2,2,2,
2,2,2,2,2,2,2,2,4),(0.,0.489623584014631,0.979247168029262,1.46887075204389,
1.95849433605852,2.43438602756014,2.91027771906175,3.38616941056337,3.86206110206498,
4.3379527935666,4.81384448506821,5.28973617656982,5.76562786807144,6.25525145208607,
6.7448750361007,7.23449862011533,7.72412220412997,8.2137457881446,8.70336937215923,
9.19299295617386,9.68261654018849,10.1585082316901,10.6343999231917,11.1102916146933,
11.5861833061949,12.0620749976966,12.5379666891982,13.0138583806998,13.4897500722014,
13.979373656216,14.4689972402307,14.9586208242453,15.4482444082599),
 .UNSPECIFIED.);
#16=B_SPLINE_CURVE_WITH_KNOTS('',3,(#409,#410,#411,#412,#413,#414,#415,
#416,#417,#418,#419,#420,#421,#422,#423,#424,#425,#426,#427,#428,#429,#430,
#431,#432,#433,#434,#435,#436,#437,#438,#439,#440,#441,#442,#443,#444,#445,
#446,#447,#448,#449,#450,#451,#452,#453,#454,#455,#456,#457,#458,#459,#460,
#461,#462,#463,#464,#465,#466,#467,#468,#469,#470,#471,#472,#473,#474),
 .UNSPECIFIED.,.T.,.F.,(4,2,2,2,2,2,2,2,2,2,2,2,2,2,2,2,2,2,2,2,2,2,2,2,
2,2,2,2,2,2,2,2,4),(0.,0.629078575849884,1.25815715169977,1.88723572754965,
2.51631430339954,3.12363808877852,3.73096187415751,4.3382856595365,4.94560944491549,
5.55293323029448,6.16025701567347,6.76758080105246,7.37490458643145,8.00398316228133,
8.63306173813122,9.2621403139811,9.89121888983098,10.5202974656809,11.1493760415308,
11.7784546173806,12.4075331932305,13.0148569786095,13.6221807639885,14.2295045493675,
14.8368283347465,15.4441521201255,16.0514759055045,16.6587996908834,17.2661234762624,
17.8952020521123,18.5242806279622,19.1533592038121,19.782437779662),
 .UNSPECIFIED.);
#17=PLANE('',#207);
#18=PLANE('',#214);
#19=PLANE('',#221);
#20=PLANE('',#228);
#21=PLANE('',#231);
#22=PLANE('',#232);
#23=CYLINDRICAL_SURFACE('',#205,31.5);
#24=CYLINDRICAL_SURFACE('',#212,31.5);
#25=CYLINDRICAL_SURFACE('',#219,25.);
#26=CYLINDRICAL_SURFACE('',#223,24.);
#27=CYLINDRICAL_SURFACE('',#225,30.5);
#28=CYLINDRICAL_SURFACE('',#229,30.5);
#29=CYLINDRICAL_SURFACE('',#230,37.5);
#30=FACE_BOUND('',#65,.T.);
#31=FACE_BOUND('',#67,.T.);
#32=FACE_BOUND('',#69,.T.);
#33=FACE_BOUND('',#71,.T.);
#34=FACE_BOUND('',#73,.T.);
#35=FACE_BOUND('',#75,.T.);
#36=FACE_BOUND('',#77,.T.);
#37=FACE_BOUND('',#79,.T.);
#38=FACE_BOUND('',#81,.T.);
#39=FACE_BOUND('',#83,.T.);
#40=FACE_BOUND('',#85,.T.);
#41=FACE_BOUND('',#86,.T.);
#42=FACE_BOUND('',#88,.T.);
#43=FACE_BOUND('',#90,.T.);
#44=FACE_BOUND('',#92,.T.);
#45=FACE_BOUND('',#93,.T.);
#46=FACE_BOUND('',#95,.T.);
#47=FACE_BOUND('',#97,.T.);
#48=FACE_OUTER_BOUND('',#64,.T.);
#49=FACE_OUTER_BOUND('',#66,.T.);
#50=FACE_OUTER_BOUND('',#68,.T.);
#51=FACE_OUTER_BOUND('',#70,.T.);
#52=FACE_OUTER_BOUND('',#72,.T.);
#53=FACE_OUTER_BOUND('',#74,.T.);
#54=FACE_OUTER_BOUND('',#76,.T.);
#55=FACE_OUTER_BOUND('',#78,.T.);
#56=FACE_OUTER_BOUND('',#80,.T.);
#57=FACE_OUTER_BOUND('',#82,.T.);
#58=FACE_OUTER_BOUND('',#84,.T.);
#59=FACE_OUTER_BOUND('',#87,.T.);
#60=FACE_OUTER_BOUND('',#89,.T.);
#61=FACE_OUTER_BOUND('',#91,.T.);
#62=FACE_OUTER_BOUND('',#94,.T.);
#63=FACE_OUTER_BOUND('',#96,.T.);
#64=EDGE_LOOP('',(#147));
#65=EDGE_LOOP('',(#148));
#66=EDGE_LOOP('',(#149));
#67=EDGE_LOOP('',(#150));
#68=EDGE_LOOP('',(#151));
#69=EDGE_LOOP('',(#152));
#70=EDGE_LOOP('',(#153));
#71=EDGE_LOOP('',(#154));
#72=EDGE_LOOP('',(#155));
#73=EDGE_LOOP('',(#156));
#74=EDGE_LOOP('',(#157));
#75=EDGE_LOOP('',(#158));
#76=EDGE_LOOP('',(#159));
#77=EDGE_LOOP('',(#160));
#78=EDGE_LOOP('',(#161));
#79=EDGE_LOOP('',(#162));
#80=EDGE_LOOP('',(#163));
#81=EDGE_LOOP('',(#164));
#82=EDGE_LOOP('',(#165));
#83=EDGE_LOOP('',(#166));
#84=EDGE_LOOP('',(#167));
#85=EDGE_LOOP('',(#168));
#86=EDGE_LOOP('',(#169));
#87=EDGE_LOOP('',(#170));
#88=EDGE_LOOP('',(#171));
#89=EDGE_LOOP('',(#172));
#90=EDGE_LOOP('',(#173));
#91=EDGE_LOOP('',(#174));
#92=EDGE_LOOP('',(#175));
#93=EDGE_LOOP('',(#176));
#94=EDGE_LOOP('',(#177));
#95=EDGE_LOOP('',(#178));
#96=EDGE_LOOP('',(#179));
#97=EDGE_LOOP('',(#180));
#98=CIRCLE('',#203,31.5);
#99=CIRCLE('',#204,32.);
#100=CIRCLE('',#206,31.5);
#101=CIRCLE('',#208,37.5);
#102=CIRCLE('',#210,31.5);
#103=CIRCLE('',#211,32.);
#104=CIRCLE('',#213,31.5);
#105=CIRCLE('',#215,37.5);
#106=CIRCLE('',#217,25.);
#107=CIRCLE('',#218,25.5);
#108=CIRCLE('',#220,25.);
#109=CIRCLE('',#222,30.5);
#110=CIRCLE('',#224,24.);
#111=CIRCLE('',#226,30.5);
#112=CIRCLE('',#227,30.5);
#113=VERTEX_POINT('',#299);
#114=VERTEX_POINT('',#301);
#115=VERTEX_POINT('',#304);
#116=VERTEX_POINT('',#307);
#117=VERTEX_POINT('',#310);
#118=VERTEX_POINT('',#312);
#119=VERTEX_POINT('',#315);
#120=VERTEX_POINT('',#318);
#121=VERTEX_POINT('',#321);
#122=VERTEX_POINT('',#323);
#123=VERTEX_POINT('',#326);
#124=VERTEX_POINT('',#329);
#125=VERTEX_POINT('',#332);
#126=VERTEX_POINT('',#399);
#127=VERTEX_POINT('',#402);
#128=VERTEX_POINT('',#404);
#129=VERTEX_POINT('',#408);
#130=EDGE_CURVE('',#113,#113,#98,.T.);
#131=EDGE_CURVE('',#114,#114,#99,.T.);
#132=EDGE_CURVE('',#115,#115,#100,.T.);
#133=EDGE_CURVE('',#116,#116,#101,.T.);
#134=EDGE_CURVE('',#117,#117,#102,.T.);
#135=EDGE_CURVE('',#118,#118,#103,.T.);
#136=EDGE_CURVE('',#119,#119,#104,.T.);
#137=EDGE_CURVE('',#120,#120,#105,.T.);
#138=EDGE_CURVE('',#121,#121,#106,.T.);
#139=EDGE_CURVE('',#122,#122,#107,.T.);
#140=EDGE_CURVE('',#123,#123,#108,.T.);
#141=EDGE_CURVE('',#124,#124,#109,.T.);
#142=EDGE_CURVE('',#125,#125,#15,.T.);
#143=EDGE_CURVE('',#126,#126,#110,.T.);
#144=EDGE_CURVE('',#127,#127,#111,.T.);
#145=EDGE_CURVE('',#128,#128,#112,.T.);
#146=EDGE_CURVE('',#129,#129,#16,.T.);
#147=ORIENTED_EDGE('',*,*,#130,.T.);
#148=ORIENTED_EDGE('',*,*,#131,.T.);
#149=ORIENTED_EDGE('',*,*,#132,.T.);
#150=ORIENTED_EDGE('',*,*,#130,.F.);
#151=ORIENTED_EDGE('',*,*,#133,.T.);
#152=ORIENTED_EDGE('',*,*,#131,.F.);
#153=ORIENTED_EDGE('',*,*,#134,.T.);
#154=ORIENTED_EDGE('',*,*,#135,.T.);
#155=ORIENTED_EDGE('',*,*,#136,.F.);
#156=ORIENTED_EDGE('',*,*,#134,.F.);
#157=ORIENTED_EDGE('',*,*,#137,.T.);
#158=ORIENTED_EDGE('',*,*,#135,.F.);
#159=ORIENTED_EDGE('',*,*,#138,.T.);
#160=ORIENTED_EDGE('',*,*,#139,.T.);
#161=ORIENTED_EDGE('',*,*,#140,.T.);
#162=ORIENTED_EDGE('',*,*,#138,.F.);
#163=ORIENTED_EDGE('',*,*,#141,.F.);
#164=ORIENTED_EDGE('',*,*,#139,.F.);
#165=ORIENTED_EDGE('',*,*,#142,.F.);
#166=ORIENTED_EDGE('',*,*,#143,.F.);
#167=ORIENTED_EDGE('',*,*,#144,.F.);
#168=ORIENTED_EDGE('',*,*,#142,.T.);
#169=ORIENTED_EDGE('',*,*,#145,.F.);
#170=ORIENTED_EDGE('',*,*,#140,.F.);
#171=ORIENTED_EDGE('',*,*,#143,.T.);
#172=ORIENTED_EDGE('',*,*,#141,.T.);
#173=ORIENTED_EDGE('',*,*,#146,.F.);
#174=ORIENTED_EDGE('',*,*,#133,.F.);
#175=ORIENTED_EDGE('',*,*,#137,.F.);
#176=ORIENTED_EDGE('',*,*,#146,.T.);
#177=ORIENTED_EDGE('',*,*,#136,.T.);
#178=ORIENTED_EDGE('',*,*,#145,.T.);
#179=ORIENTED_EDGE('',*,*,#132,.F.);
#180=ORIENTED_EDGE('',*,*,#144,.T.);
#181=TOROIDAL_SURFACE('',#202,32.,0.5);
#182=TOROIDAL_SURFACE('',#209,32.,0.5);
#183=TOROIDAL_SURFACE('',#216,25.5,0.5);
#184=ADVANCED_FACE('',(#48,#30),#181,.T.);
#185=ADVANCED_FACE('',(#49,#31),#23,.F.);
#186=ADVANCED_FACE('',(#50,#32),#17,.T.);
#187=ADVANCED_FACE('',(#51,#33),#182,.T.);
#188=ADVANCED_FACE('',(#52,#34),#24,.F.);
#189=ADVANCED_FACE('',(#53,#35),#18,.F.);
#190=ADVANCED_FACE('',(#54,#36),#183,.T.);
#191=ADVANCED_FACE('',(#55,#37),#25,.F.);
#192=ADVANCED_FACE('',(#56,#38),#19,.T.);
#193=ADVANCED_FACE('',(#57,#39),#26,.F.);
#194=ADVANCED_FACE('',(#58,#40,#41),#27,.F.);
#195=ADVANCED_FACE('',(#59,#42),#20,.T.);
#196=ADVANCED_FACE('',(#60,#43),#28,.T.);
#197=ADVANCED_FACE('',(#61,#44,#45),#29,.T.);
#198=ADVANCED_FACE('',(#62,#46),#21,.F.);
#199=ADVANCED_FACE('',(#63,#47),#22,.T.);
#200=CLOSED_SHELL('',(#184,#185,#186,#187,#188,#189,#190,#191,#192,#193,
#194,#195,#196,#197,#198,#199));
#201=AXIS2_PLACEMENT_3D('placement',#297,#233,#234);
#202=AXIS2_PLACEMENT_3D('',#298,#235,#236);
#203=AXIS2_PLACEMENT_3D('',#300,#237,#238);
#204=AXIS2_PLACEMENT_3D('',#302,#239,#240);
#205=AXIS2_PLACEMENT_3D('',#303,#241,#242);
#206=AXIS2_PLACEMENT_3D('',#305,#243,#244);
#207=AXIS2_PLACEMENT_3D('',#306,#245,#246);
#208=AXIS2_PLACEMENT_3D('',#308,#247,#248);
#209=AXIS2_PLACEMENT_3D('',#309,#249,#250);
#210=AXIS2_PLACEMENT_3D('',#311,#251,#252);
#211=AXIS2_PLACEMENT_3D('',#313,#253,#254);
#212=AXIS2_PLACEMENT_3D('',#314,#255,#256);
#213=AXIS2_PLACEMENT_3D('',#316,#257,#258);
#214=AXIS2_PLACEMENT_3D('',#317,#259,#260);
#215=AXIS2_PLACEMENT_3D('',#319,#261,#262);
#216=AXIS2_PLACEMENT_3D('',#320,#263,#264);
#217=AXIS2_PLACEMENT_3D('',#322,#265,#266);
#218=AXIS2_PLACEMENT_3D('',#324,#267,#268);
#219=AXIS2_PLACEMENT_3D('',#325,#269,#270);
#220=AXIS2_PLACEMENT_3D('',#327,#271,#272);
#221=AXIS2_PLACEMENT_3D('',#328,#273,#274);
#222=AXIS2_PLACEMENT_3D('',#330,#275,#276);
#223=AXIS2_PLACEMENT_3D('',#331,#277,#278);
#224=AXIS2_PLACEMENT_3D('',#400,#279,#280);
#225=AXIS2_PLACEMENT_3D('',#401,#281,#282);
#226=AXIS2_PLACEMENT_3D('',#403,#283,#284);
#227=AXIS2_PLACEMENT_3D('',#405,#285,#286);
#228=AXIS2_PLACEMENT_3D('',#406,#287,#288);
#229=AXIS2_PLACEMENT_3D('',#407,#289,#290);
#230=AXIS2_PLACEMENT_3D('',#475,#291,#292);
#231=AXIS2_PLACEMENT_3D('',#476,#293,#294);
#232=AXIS2_PLACEMENT_3D('',#477,#295,#296);
#233=DIRECTION('axis',(0.,0.,1.));
#234=DIRECTION('refdir',(1.,0.,0.));
#235=DIRECTION('center_axis',(0.,0.,-1.));
#236=DIRECTION('ref_axis',(-1.,0.,0.));
#237=DIRECTION('center_axis',(0.,0.,-1.));
#238=DIRECTION('ref_axis',(-1.,0.,0.));
#239=DIRECTION('center_axis',(0.,0.,1.));
#240=DIRECTION('ref_axis',(-1.,0.,0.));
#241=DIRECTION('center_axis',(0.,0.,-1.));
#242=DIRECTION('ref_axis',(-1.,0.,0.));
#243=DIRECTION('center_axis',(0.,0.,-1.));
#244=DIRECTION('ref_axis',(-1.,0.,0.));
#245=DIRECTION('center_axis',(0.,0.,1.));
#246=DIRECTION('ref_axis',(1.,0.,0.));
#247=DIRECTION('center_axis',(0.,0.,1.));
#248=DIRECTION('ref_axis',(-1.,0.,0.));
#249=DIRECTION('center_axis',(0.,0.,1.));
#250=DIRECTION('ref_axis',(1.,0.,0.));
#251=DIRECTION('center_axis',(0.,0.,1.));
#252=DIRECTION('ref_axis',(-1.,0.,0.));
#253=DIRECTION('center_axis',(0.,0.,-1.));
#254=DIRECTION('ref_axis',(-1.,0.,0.));
#255=DIRECTION('center_axis',(0.,0.,-1.));
#256=DIRECTION('ref_axis',(-1.,0.,0.));
#257=DIRECTION('center_axis',(0.,0.,-1.));
#258=DIRECTION('ref_axis',(-1.,0.,0.));
#259=DIRECTION('center_axis',(0.,0.,1.));
#260=DIRECTION('ref_axis',(1.,0.,0.));
#261=DIRECTION('center_axis',(0.,0.,-1.));
#262=DIRECTION('ref_axis',(-1.,0.,0.));
#263=DIRECTION('center_axis',(0.,-1.,0.));
#264=DIRECTION('ref_axis',(0.,0.,-1.));
#265=DIRECTION('center_axis',(0.,-1.,0.));
#266=DIRECTION('ref_axis',(-1.,0.,0.));
#267=DIRECTION('center_axis',(0.,1.,0.));
#268=DIRECTION('ref_axis',(-1.,0.,0.));
#269=DIRECTION('center_axis',(0.,-1.,0.));
#270=DIRECTION('ref_axis',(-1.,0.,0.));
#271=DIRECTION('center_axis',(0.,-1.,0.));
#272=DIRECTION('ref_axis',(-1.,0.,0.));
#273=DIRECTION('center_axis',(0.,1.,0.));
#274=DIRECTION('ref_axis',(0.,0.,1.));
#275=DIRECTION('center_axis',(0.,-1.,0.));
#276=DIRECTION('ref_axis',(1.,0.,0.));
#277=DIRECTION('center_axis',(0.,-1.,0.));
#278=DIRECTION('ref_axis',(-1.,0.,0.));
#279=DIRECTION('center_axis',(0.,-1.,0.));
#280=DIRECTION('ref_axis',(-1.,0.,0.));
#281=DIRECTION('center_axis',(0.,0.,1.));
#282=DIRECTION('ref_axis',(1.,0.,0.));
#283=DIRECTION('center_axis',(0.,0.,-1.));
#284=DIRECTION('ref_axis',(1.,0.,0.));
#285=DIRECTION('center_axis',(0.,0.,1.));
#286=DIRECTION('ref_axis',(1.,0.,0.));
#287=DIRECTION('center_axis',(0.,1.,0.));
#288=DIRECTION('ref_axis',(0.,0.,1.));
#289=DIRECTION('center_axis',(0.,-1.,0.));
#290=DIRECTION('ref_axis',(1.,0.,0.));
#291=DIRECTION('center_axis',(0.,0.,1.));
#292=DIRECTION('ref_axis',(-1.,0.,0.));
#293=DIRECTION('center_axis',(0.,0.,1.));
#294=DIRECTION('ref_axis',(1.,0.,0.));
#295=DIRECTION('center_axis',(0.,0.,1.));
#296=DIRECTION('ref_axis',(1.,0.,0.));
#297=CARTESIAN_POINT('',(0.,0.,0.));
#298=CARTESIAN_POINT('Origin',(0.,0.,70.5));
#299=CARTESIAN_POINT('',(31.5,-3.85763741731416E-15,70.5));
#300=CARTESIAN_POINT('Origin',(0.,0.,70.5));
#301=CARTESIAN_POINT('',(32.,3.91886975727153E-15,71.));
#302=CARTESIAN_POINT('Origin',(0.,0.,71.));
#303=CARTESIAN_POINT('Origin',(0.,0.,71.));
#304=CARTESIAN_POINT('',(31.5,3.85763741731416E-15,33.));
#305=CARTESIAN_POINT('Origin',(0.,0.,33.));
#306=CARTESIAN_POINT('Origin',(-3.54066983922288E-15,-7.89491928622334E-16,
71.));
#307=CARTESIAN_POINT('',(37.5,4.59242549680258E-15,71.));
#308=CARTESIAN_POINT('Origin',(0.,0.,71.));
#309=CARTESIAN_POINT('Origin',(0.,0.,-70.5));
#310=CARTESIAN_POINT('',(31.5,3.85763741731416E-15,-70.5));
#311=CARTESIAN_POINT('Origin',(0.,0.,-70.5));
#312=CARTESIAN_POINT('',(32.,-3.91886975727153E-15,-71.));
#313=CARTESIAN_POINT('Origin',(0.,0.,-71.));
#314=CARTESIAN_POINT('Origin',(0.,0.,-71.));
#315=CARTESIAN_POINT('',(31.5,3.85763741731416E-15,-33.));
#316=CARTESIAN_POINT('Origin',(0.,0.,-33.));
#317=CARTESIAN_POINT('Origin',(-3.54066983922288E-15,-7.89491928622334E-16,
-71.));
#318=CARTESIAN_POINT('',(37.5,4.59242549680258E-15,-71.));
#319=CARTESIAN_POINT('Origin',(0.,0.,-71.));
#320=CARTESIAN_POINT('Origin',(0.,63.5,0.));
#321=CARTESIAN_POINT('',(25.,63.5,3.06161699786838E-15));
#322=CARTESIAN_POINT('Origin',(0.,63.5,0.));
#323=CARTESIAN_POINT('',(25.5,64.,-3.12284933782575E-15));
#324=CARTESIAN_POINT('Origin',(0.,64.,0.));
#325=CARTESIAN_POINT('Origin',(0.,64.,0.));
#326=CARTESIAN_POINT('',(25.,33.,-3.06161699786838E-15));
#327=CARTESIAN_POINT('Origin',(0.,33.,0.));
#328=CARTESIAN_POINT('Origin',(3.11264394783286E-16,64.,0.));
#329=CARTESIAN_POINT('',(-30.5,64.,3.73517273739943E-15));
#330=CARTESIAN_POINT('Origin',(0.,64.,0.));
#331=CARTESIAN_POINT('Origin',(0.,33.,0.));
#332=CARTESIAN_POINT('',(24.,18.8215302247187,4.16333634234434E-15));
#333=CARTESIAN_POINT('Ctrl Pts',(24.,18.8215302247187,4.16333634234434E-15));
#334=CARTESIAN_POINT('Ctrl Pts',(24.,18.8215302247187,-1.6320786133821));
#335=CARTESIAN_POINT('Ctrl Pts',(23.8323874547428,19.0401091675931,-3.25654569618498));
#336=CARTESIAN_POINT('Ctrl Pts',(23.1845993935213,19.8237937206934,-6.40797434932989));
#337=CARTESIAN_POINT('Ctrl Pts',(22.7046980297756,20.3849308000364,-7.93597780948259));
#338=CARTESIAN_POINT('Ctrl Pts',(21.4721450995324,21.6793834238864,-10.8365161944769));
#339=CARTESIAN_POINT('Ctrl Pts',(20.7183187447502,22.4120072760938,-12.2114148933107));
#340=CARTESIAN_POINT('Ctrl Pts',(18.9893799417724,23.8945653137701,-14.7570604996426));
#341=CARTESIAN_POINT('Ctrl Pts',(18.0135951581566,24.6441910695128,-15.9275303387977));
#342=CARTESIAN_POINT('Ctrl Pts',(15.9567830329181,26.0215236200135,-17.9843424640362));
#343=CARTESIAN_POINT('Ctrl Pts',(14.803636563547,26.7042082247209,-18.9531511080758));
#344=CARTESIAN_POINT('Ctrl Pts',(12.2610045811537,27.9630141275129,-20.6890637607805));
#345=CARTESIAN_POINT('Ctrl Pts',(10.871303793718,28.5386416479071,-21.4562104753195));
#346=CARTESIAN_POINT('Ctrl Pts',(7.93032887851753,29.4915109355419,-22.708239129067));
#347=CARTESIAN_POINT('Ctrl Pts',(6.37565882075652,29.8693807832069,-23.1941942220954));
#348=CARTESIAN_POINT('Ctrl Pts',(3.2036976867711,30.3737593150789,-23.8402179556037));
#349=CARTESIAN_POINT('Ctrl Pts',(1.58630563833872,30.5,-24.));
#350=CARTESIAN_POINT('Ctrl Pts',(-1.58630563833871,30.5,-24.));
#351=CARTESIAN_POINT('Ctrl Pts',(-3.20369768677108,30.3737593150789,-23.8402179556037));
#352=CARTESIAN_POINT('Ctrl Pts',(-6.3756588207565,29.8693807832069,-23.1941942220954));
#353=CARTESIAN_POINT('Ctrl Pts',(-7.93032887851752,29.4915109355419,-22.708239129067));
#354=CARTESIAN_POINT('Ctrl Pts',(-10.871303793718,28.5386416479071,-21.4562104753195));
#355=CARTESIAN_POINT('Ctrl Pts',(-12.2610045811537,27.9630141275129,-20.6890637607805));
#356=CARTESIAN_POINT('Ctrl Pts',(-14.803636563547,26.7042082247209,-18.9531511080758));
#357=CARTESIAN_POINT('Ctrl Pts',(-15.9567830329181,26.0215236200136,-17.9843424640362));
#358=CARTESIAN_POINT('Ctrl Pts',(-18.0135951581566,24.6441910695128,-15.9275303387977));
#359=CARTESIAN_POINT('Ctrl Pts',(-18.9893799417724,23.8945653137701,-14.7570604996426));
#360=CARTESIAN_POINT('Ctrl Pts',(-20.7183187447502,22.4120072760938,-12.2114148933107));
#361=CARTESIAN_POINT('Ctrl Pts',(-21.4721450995324,21.6793834238864,-10.8365161944769));
#362=CARTESIAN_POINT('Ctrl Pts',(-22.7046980297756,20.3849308000364,-7.93597780948259));
#363=CARTESIAN_POINT('Ctrl Pts',(-23.1845993935213,19.8237937206934,-6.4079743493299));
#364=CARTESIAN_POINT('Ctrl Pts',(-23.8323874547428,19.0401091675931,-3.25654569618498));
#365=CARTESIAN_POINT('Ctrl Pts',(-24.,18.8215302247187,-1.6320786133821));
#366=CARTESIAN_POINT('Ctrl Pts',(-24.,18.8215302247187,1.63207861338211));
#367=CARTESIAN_POINT('Ctrl Pts',(-23.8323874547428,19.0401091675931,3.25654569618498));
#368=CARTESIAN_POINT('Ctrl Pts',(-23.1845993935213,19.8237937206934,6.40797434932989));
#369=CARTESIAN_POINT('Ctrl Pts',(-22.7046980297756,20.3849308000364,7.93597780948258));
#370=CARTESIAN_POINT('Ctrl Pts',(-21.4721450995324,21.6793834238864,10.8365161944769));
#371=CARTESIAN_POINT('Ctrl Pts',(-20.7183187447502,22.4120072760938,12.2114148933107));
#372=CARTESIAN_POINT('Ctrl Pts',(-18.9893799417724,23.8945653137701,14.7570604996426));
#373=CARTESIAN_POINT('Ctrl Pts',(-18.0135951581566,24.6441910695128,15.9275303387977));
#374=CARTESIAN_POINT('Ctrl Pts',(-15.9567830329181,26.0215236200135,17.9843424640362));
#375=CARTESIAN_POINT('Ctrl Pts',(-14.803636563547,26.7042082247209,18.9531511080758));
#376=CARTESIAN_POINT('Ctrl Pts',(-12.2610045811538,27.9630141275129,20.6890637607805));
#377=CARTESIAN_POINT('Ctrl Pts',(-10.871303793718,28.5386416479071,21.4562104753195));
#378=CARTESIAN_POINT('Ctrl Pts',(-7.93032887851754,29.4915109355419,22.708239129067));
#379=CARTESIAN_POINT('Ctrl Pts',(-6.37565882075652,29.8693807832069,23.1941942220954));
#380=CARTESIAN_POINT('Ctrl Pts',(-3.2036976867711,30.3737593150789,23.8402179556037));
#381=CARTESIAN_POINT('Ctrl Pts',(-1.58630563833872,30.5,24.));
#382=CARTESIAN_POINT('Ctrl Pts',(1.58630563833871,30.5,24.));
#383=CARTESIAN_POINT('Ctrl Pts',(3.20369768677108,30.3737593150789,23.8402179556037));
#384=CARTESIAN_POINT('Ctrl Pts',(6.37565882075649,29.8693807832069,23.1941942220954));
#385=CARTESIAN_POINT('Ctrl Pts',(7.9303288785175,29.4915109355419,22.708239129067));
#386=CARTESIAN_POINT('Ctrl Pts',(10.871303793718,28.5386416479071,21.4562104753195));
#387=CARTESIAN_POINT('Ctrl Pts',(12.2610045811537,27.963014127513,20.6890637607805));
#388=CARTESIAN_POINT('Ctrl Pts',(14.803636563547,26.7042082247209,18.9531511080758));
#389=CARTESIAN_POINT('Ctrl Pts',(15.9567830329181,26.0215236200136,17.9843424640362));
#390=CARTESIAN_POINT('Ctrl Pts',(18.0135951581565,24.6441910695128,15.9275303387977));
#391=CARTESIAN_POINT('Ctrl Pts',(18.9893799417724,23.8945653137701,14.7570604996426));
#392=CARTESIAN_POINT('Ctrl Pts',(20.7183187447502,22.4120072760938,12.2114148933108));
#393=CARTESIAN_POINT('Ctrl Pts',(21.4721450995324,21.6793834238864,10.8365161944769));
#394=CARTESIAN_POINT('Ctrl Pts',(22.7046980297756,20.3849308000364,7.9359778094826));
#395=CARTESIAN_POINT('Ctrl Pts',(23.1845993935213,19.8237937206934,6.40797434932991));
#396=CARTESIAN_POINT('Ctrl Pts',(23.8323874547428,19.0401091675931,3.25654569618499));
#397=CARTESIAN_POINT('Ctrl Pts',(24.,18.8215302247187,1.63207861338211));
#398=CARTESIAN_POINT('Ctrl Pts',(24.,18.8215302247187,4.44089209850063E-15));
#399=CARTESIAN_POINT('',(24.,33.,-2.93915231795365E-15));
#400=CARTESIAN_POINT('Origin',(0.,33.,0.));
#401=CARTESIAN_POINT('Origin',(0.,0.,-33.));
#402=CARTESIAN_POINT('',(-30.5,3.73517273739943E-15,33.));
#403=CARTESIAN_POINT('Origin',(0.,0.,33.));
#404=CARTESIAN_POINT('',(-30.5,3.73517273739943E-15,-33.));
#405=CARTESIAN_POINT('Origin',(0.,0.,-33.));
#406=CARTESIAN_POINT('Origin',(-1.43937264275587E-15,33.,0.));
#407=CARTESIAN_POINT('Origin',(0.,64.,0.));
#408=CARTESIAN_POINT('',(30.5,21.8174242292714,5.55111512312578E-16));
#409=CARTESIAN_POINT('Ctrl Pts',(30.5,21.8174242292714,5.55111512312578E-16));
#410=CARTESIAN_POINT('Ctrl Pts',(30.5,21.8174242292714,2.09692858616628));
#411=CARTESIAN_POINT('Ctrl Pts',(30.2830114666833,22.1281884998144,4.16733353899259));
#412=CARTESIAN_POINT('Ctrl Pts',(29.4562147446598,23.2174270729174,8.17061003641643));
#413=CARTESIAN_POINT('Ctrl Pts',(28.8465353843971,23.9899280781191,10.1051310440049));
#414=CARTESIAN_POINT('Ctrl Pts',(27.2830232036107,25.7541434552346,13.7794382993054));
#415=CARTESIAN_POINT('Ctrl Pts',(26.3276874770427,26.7451163322107,15.5214164404442));
#416=CARTESIAN_POINT('Ctrl Pts',(24.1338801865714,28.7402888562756,18.7514618882066));
#417=CARTESIAN_POINT('Ctrl Pts',(22.8945060549035,29.7443403689361,20.2390075974759));
#418=CARTESIAN_POINT('Ctrl Pts',(20.2849238110897,31.5789014461764,22.8485898412897));
#419=CARTESIAN_POINT('Ctrl Pts',(18.8253333906769,32.4830186057099,24.07627453327));
#420=CARTESIAN_POINT('Ctrl Pts',(15.6026112889425,34.1481799812663,26.2796250728047));
#421=CARTESIAN_POINT('Ctrl Pts',(13.8391963554375,34.9086370320947,27.2553203188889));
#422=CARTESIAN_POINT('Ctrl Pts',(10.1027392051747,36.1672640991015,28.8497928314436));
#423=CARTESIAN_POINT('Ctrl Pts',(8.1253086461595,36.6663197604811,29.469954370592));
#424=CARTESIAN_POINT('Ctrl Pts',(4.08621169169003,37.3328611203792,30.2952426176074));
#425=CARTESIAN_POINT('Ctrl Pts',(2.02441261792997,37.5,30.5));
#426=CARTESIAN_POINT('Ctrl Pts',(-2.02441261792996,37.5,30.5));
#427=CARTESIAN_POINT('Ctrl Pts',(-4.08621169169003,37.3328611203792,30.2952426176074));
#428=CARTESIAN_POINT('Ctrl Pts',(-8.1253086461595,36.6663197604811,29.469954370592));
#429=CARTESIAN_POINT('Ctrl Pts',(-10.1027392051747,36.1672640991015,28.8497928314436));
#430=CARTESIAN_POINT('Ctrl Pts',(-13.8391963554375,34.9086370320947,27.2553203188889));
#431=CARTESIAN_POINT('Ctrl Pts',(-15.6026112889425,34.1481799812663,26.2796250728047));
#432=CARTESIAN_POINT('Ctrl Pts',(-18.8253333906769,32.4830186057099,24.0762745332699));
#433=CARTESIAN_POINT('Ctrl Pts',(-20.2849238110897,31.5789014461764,22.8485898412897));
#434=CARTESIAN_POINT('Ctrl Pts',(-22.8945060549035,29.7443403689361,20.2390075974759));
#435=CARTESIAN_POINT('Ctrl Pts',(-24.1338801865714,28.7402888562756,18.7514618882066));
#436=CARTESIAN_POINT('Ctrl Pts',(-26.3276874770427,26.7451163322107,15.5214164404442));
#437=CARTESIAN_POINT('Ctrl Pts',(-27.2830232036107,25.7541434552346,13.7794382993055));
#438=CARTESIAN_POINT('Ctrl Pts',(-28.8465353843971,23.9899280781191,10.1051310440049));
#439=CARTESIAN_POINT('Ctrl Pts',(-29.4562147446598,23.2174270729174,8.17061003641644));
#440=CARTESIAN_POINT('Ctrl Pts',(-30.2830114666833,22.1281884998144,4.16733353899259));
#441=CARTESIAN_POINT('Ctrl Pts',(-30.5,21.8174242292714,2.09692858616628));
#442=CARTESIAN_POINT('Ctrl Pts',(-30.5,21.8174242292714,-2.09692858616628));
#443=CARTESIAN_POINT('Ctrl Pts',(-30.2830114666833,22.1281884998144,-4.16733353899258));
#444=CARTESIAN_POINT('Ctrl Pts',(-29.4562147446598,23.2174270729174,-8.17061003641643));
#445=CARTESIAN_POINT('Ctrl Pts',(-28.8465353843971,23.9899280781191,-10.1051310440049));
#446=CARTESIAN_POINT('Ctrl Pts',(-27.2830232036107,25.7541434552346,-13.7794382993054));
#447=CARTESIAN_POINT('Ctrl Pts',(-26.3276874770427,26.7451163322107,-15.5214164404442));
#448=CARTESIAN_POINT('Ctrl Pts',(-24.1338801865714,28.7402888562756,-18.7514618882066));
#449=CARTESIAN_POINT('Ctrl Pts',(-22.8945060549035,29.7443403689361,-20.2390075974759));
#450=CARTESIAN_POINT('Ctrl Pts',(-20.2849238110897,31.5789014461764,-22.8485898412897));
#451=CARTESIAN_POINT('Ctrl Pts',(-18.8253333906769,32.4830186057099,-24.0762745332699));
#452=CARTESIAN_POINT('Ctrl Pts',(-15.6026112889425,34.1481799812663,-26.2796250728047));
#453=CARTESIAN_POINT('Ctrl Pts',(-13.8391963554375,34.9086370320947,-27.2553203188889));
#454=CARTESIAN_POINT('Ctrl Pts',(-10.1027392051747,36.1672640991015,-28.8497928314436));
#455=CARTESIAN_POINT('Ctrl Pts',(-8.1253086461595,36.6663197604811,-29.469954370592));
#456=CARTESIAN_POINT('Ctrl Pts',(-4.08621169169003,37.3328611203792,-30.2952426176074));
#457=CARTESIAN_POINT('Ctrl Pts',(-2.02441261792997,37.5,-30.5));
#458=CARTESIAN_POINT('Ctrl Pts',(2.02441261792996,37.5,-30.5));
#459=CARTESIAN_POINT('Ctrl Pts',(4.08621169169002,37.3328611203792,-30.2952426176074));
#460=CARTESIAN_POINT('Ctrl Pts',(8.1253086461595,36.6663197604811,-29.469954370592));
#461=CARTESIAN_POINT('Ctrl Pts',(10.1027392051747,36.1672640991015,-28.8497928314436));
#462=CARTESIAN_POINT('Ctrl Pts',(13.8391963554375,34.9086370320947,-27.2553203188889));
#463=CARTESIAN_POINT('Ctrl Pts',(15.6026112889425,34.1481799812663,-26.2796250728047));
#464=CARTESIAN_POINT('Ctrl Pts',(18.8253333906768,32.48301860571,-24.07627453327));
#465=CARTESIAN_POINT('Ctrl Pts',(20.2849238110897,31.5789014461764,-22.8485898412897));
#466=CARTESIAN_POINT('Ctrl Pts',(22.8945060549035,29.7443403689361,-20.2390075974759));
#467=CARTESIAN_POINT('Ctrl Pts',(24.1338801865714,28.7402888562756,-18.7514618882066));
#468=CARTESIAN_POINT('Ctrl Pts',(26.3276874770427,26.7451163322107,-15.5214164404442));
#469=CARTESIAN_POINT('Ctrl Pts',(27.2830232036107,25.7541434552346,-13.7794382993055));
#470=CARTESIAN_POINT('Ctrl Pts',(28.8465353843971,23.9899280781191,-10.1051310440049));
#471=CARTESIAN_POINT('Ctrl Pts',(29.4562147446598,23.2174270729174,-8.17061003641644));
#472=CARTESIAN_POINT('Ctrl Pts',(30.2830114666833,22.1281884998144,-4.1673335389926));
#473=CARTESIAN_POINT('Ctrl Pts',(30.5,21.8174242292714,-2.09692858616628));
#474=CARTESIAN_POINT('Ctrl Pts',(30.5,21.8174242292714,-5.55111512312578E-16));
#475=CARTESIAN_POINT('Origin',(0.,0.,0.));
#476=CARTESIAN_POINT('Origin',(-3.14108381557023E-15,-4.69935671799008E-16,
-33.));
#477=CARTESIAN_POINT('Origin',(-3.14108381557023E-15,-4.69935671799008E-16,
33.));
#478=UNCERTAINTY_MEASURE_WITH_UNIT(LENGTH_MEASURE(0.01),#482,
'DISTANCE_ACCURACY_VALUE',
'Maximum model space distance between geometric entities at asserted c
onnectivities');
#479=UNCERTAINTY_MEASURE_WITH_UNIT(LENGTH_MEASURE(1.E-6),#482,
'DISTANCE_ACCURACY_VALUE',
'Maximum model space distance between geometric entities at asserted c
onnectivities');
#480=(
GEOMETRIC_REPRESENTATION_CONTEXT(3)
GLOBAL_UNCERTAINTY_ASSIGNED_CONTEXT((#478))
GLOBAL_UNIT_ASSIGNED_CONTEXT((#482,#485,#483))
REPRESENTATION_CONTEXT('','3D')
);
#481=(
GEOMETRIC_REPRESENTATION_CONTEXT(3)
GLOBAL_UNCERTAINTY_ASSIGNED_CONTEXT((#479))
GLOBAL_UNIT_ASSIGNED_CONTEXT((#482,#485,#483))
REPRESENTATION_CONTEXT('','3D')
);
#482=(
LENGTH_UNIT()
NAMED_UNIT(*)
SI_UNIT(.MILLI.,.METRE.)
);
#483=(
NAMED_UNIT(*)
SI_UNIT($,.STERADIAN.)
SOLID_ANGLE_UNIT()
);
#484=DIMENSIONAL_EXPONENTS(0.,0.,0.,0.,0.,0.,0.);
#485=(
CONVERSION_BASED_UNIT('degree',#487)
NAMED_UNIT(#484)
PLANE_ANGLE_UNIT()
);
#486=(
NAMED_UNIT(*)
PLANE_ANGLE_UNIT()
SI_UNIT($,.RADIAN.)
);
#487=PLANE_ANGLE_MEASURE_WITH_UNIT(PLANE_ANGLE_MEASURE(0.01745329252),#486);
#488=SHAPE_DEFINITION_REPRESENTATION(#489,#490);
#489=PRODUCT_DEFINITION_SHAPE('',$,#492);
#490=SHAPE_REPRESENTATION('',(#201),#480);
#491=PRODUCT_DEFINITION_CONTEXT('part definition',#496,'design');
#492=PRODUCT_DEFINITION('TR40063F','TR40063F',#493,#491);
#493=PRODUCT_DEFINITION_FORMATION('',$,#498);
#494=PRODUCT_RELATED_PRODUCT_CATEGORY('TR40063F','TR40063F',(#498));
#495=APPLICATION_PROTOCOL_DEFINITION('international standard',
'automotive_design',2009,#496);
#496=APPLICATION_CONTEXT(
'Core Data for Automotive Mechanical Design Process');
#497=PRODUCT_CONTEXT('part definition',#496,'mechanical');
#498=PRODUCT('TR40063F','TR40063F',$,(#497));
#499=PRESENTATION_STYLE_ASSIGNMENT((#500));
#500=SURFACE_STYLE_USAGE(.BOTH.,#501);
#501=SURFACE_SIDE_STYLE('',(#502));
#502=SURFACE_STYLE_FILL_AREA(#503);
#503=FILL_AREA_STYLE('',(#504));
#504=FILL_AREA_STYLE_COLOUR('',#505);
#505=COLOUR_RGB('',0.8,0.8,0.8);
ENDSEC;
END-ISO-10303-21;
