ISO-10303-21;
HEADER;
/* Generated by software containing ST-Developer
 * from STEP Tools, Inc. (www.steptools.com) 
 */

FILE_DESCRIPTION(
/* description */ (''),
/* implementation_level */ '2;1');

FILE_NAME(
/* name */ 
'Q:\\Ric010\\FF7\\FIPlastiCAD\\FIP\\Lavoro\\PVC Fittings\\PVC Fittings
 STEP\\KIFV\\KIFV090075300.ipt.stp',
/* time_stamp */ '2013-10-01T14:44:52+02:00',
/* author */ ('bfaro'),
/* organization */ (''),
/* preprocessor_version */ 'ST-DEVELOPER v15.2',
/* originating_system */ 'Autodesk Inventor 2014',
/* authorisation */ '');

FILE_SCHEMA (('AUTOMOTIVE_DESIGN { 1 0 10303 214 3 1 1 }'));
ENDSEC;

DATA;
#10=SHAPE_REPRESENTATION_RELATIONSHIP('SRR','None',#464,#11);
#11=ADVANCED_BREP_SHAPE_REPRESENTATION($,(#277),#455);
#12=LINE($,#404,#36);
#13=LINE($,#406,#37);
#14=LINE($,#408,#38);
#15=LINE($,#409,#39);
#16=LINE($,#413,#40);
#17=LINE($,#414,#41);
#18=LINE($,#415,#42);
#19=LINE($,#418,#43);
#20=LINE($,#420,#44);
#21=LINE($,#421,#45);
#22=LINE($,#424,#46);
#23=LINE($,#426,#47);
#24=LINE($,#428,#48);
#25=LINE($,#430,#49);
#26=LINE($,#431,#50);
#27=LINE($,#434,#51);
#28=LINE($,#436,#52);
#29=LINE($,#438,#53);
#30=LINE($,#440,#54);
#31=LINE($,#441,#55);
#32=LINE($,#443,#56);
#33=LINE($,#445,#57);
#34=LINE($,#447,#58);
#35=LINE($,#449,#59);
#36=VECTOR($,#332,15.5);
#37=VECTOR($,#333,39.350288424926);
#38=VECTOR($,#334,15.5);
#39=VECTOR($,#335,39.350288424926);
#40=VECTOR($,#338,15.5);
#41=VECTOR($,#339,39.350288433457);
#42=VECTOR($,#340,39.350288433457);
#43=VECTOR($,#343,39.3502884249229);
#44=VECTOR($,#344,15.5);
#45=VECTOR($,#345,39.3502884249229);
#46=VECTOR($,#348,39.350288424923);
#47=VECTOR($,#349,39.3502884249265);
#48=VECTOR($,#350,39.350288424926);
#49=VECTOR($,#351,39.3502884249307);
#50=VECTOR($,#352,39.350288424918);
#51=VECTOR($,#355,39.350288424918);
#52=VECTOR($,#356,39.3502884249307);
#53=VECTOR($,#357,39.350288424926);
#54=VECTOR($,#358,39.3502884249265);
#55=VECTOR($,#359,39.350288424923);
#56=VECTOR($,#362,15.5);
#57=VECTOR($,#365,15.5);
#58=VECTOR($,#368,15.5);
#59=VECTOR($,#371,15.5);
#60=PLANE($,#291);
#61=PLANE($,#292);
#62=PLANE($,#293);
#63=PLANE($,#294);
#64=PLANE($,#295);
#65=PLANE($,#296);
#66=PLANE($,#297);
#67=PLANE($,#298);
#68=PLANE($,#299);
#69=PLANE($,#300);
#70=PLANE($,#301);
#71=PLANE($,#302);
#72=PLANE($,#303);
#73=STYLED_ITEM($,(#473),#262);
#74=STYLED_ITEM($,(#472),#277);
#75=FACE_BOUND($,#102,.T.);
#76=FACE_BOUND($,#104,.T.);
#77=FACE_BOUND($,#106,.T.);
#78=FACE_BOUND($,#108,.T.);
#79=FACE_BOUND($,#113,.T.);
#80=FACE_BOUND($,#115,.T.);
#81=FACE_BOUND($,#122,.T.);
#82=FACE_BOUND($,#124,.T.);
#83=FACE_BOUND($,#125,.T.);
#84=FACE_BOUND($,#126,.T.);
#85=FACE_OUTER_BOUND($,#101,.T.);
#86=FACE_OUTER_BOUND($,#103,.T.);
#87=FACE_OUTER_BOUND($,#105,.T.);
#88=FACE_OUTER_BOUND($,#107,.T.);
#89=FACE_OUTER_BOUND($,#109,.T.);
#90=FACE_OUTER_BOUND($,#110,.T.);
#91=FACE_OUTER_BOUND($,#111,.T.);
#92=FACE_OUTER_BOUND($,#112,.T.);
#93=FACE_OUTER_BOUND($,#114,.T.);
#94=FACE_OUTER_BOUND($,#116,.T.);
#95=FACE_OUTER_BOUND($,#117,.T.);
#96=FACE_OUTER_BOUND($,#118,.T.);
#97=FACE_OUTER_BOUND($,#119,.T.);
#98=FACE_OUTER_BOUND($,#120,.T.);
#99=FACE_OUTER_BOUND($,#121,.T.);
#100=FACE_OUTER_BOUND($,#123,.T.);
#101=EDGE_LOOP($,(#191));
#102=EDGE_LOOP($,(#192));
#103=EDGE_LOOP($,(#193));
#104=EDGE_LOOP($,(#194));
#105=EDGE_LOOP($,(#195));
#106=EDGE_LOOP($,(#196));
#107=EDGE_LOOP($,(#197));
#108=EDGE_LOOP($,(#198));
#109=EDGE_LOOP($,(#199,#200,#201,#202));
#110=EDGE_LOOP($,(#203,#204,#205,#206));
#111=EDGE_LOOP($,(#207,#208,#209,#210));
#112=EDGE_LOOP($,(#211,#212,#213,#214,#215,#216,#217,#218));
#113=EDGE_LOOP($,(#219));
#114=EDGE_LOOP($,(#220,#221,#222,#223,#224,#225,#226,#227));
#115=EDGE_LOOP($,(#228));
#116=EDGE_LOOP($,(#229,#230,#231,#232));
#117=EDGE_LOOP($,(#233,#234,#235,#236));
#118=EDGE_LOOP($,(#237,#238,#239,#240));
#119=EDGE_LOOP($,(#241,#242,#243,#244));
#120=EDGE_LOOP($,(#245,#246,#247,#248));
#121=EDGE_LOOP($,(#249));
#122=EDGE_LOOP($,(#250));
#123=EDGE_LOOP($,(#251));
#124=EDGE_LOOP($,(#252));
#125=EDGE_LOOP($,(#253));
#126=EDGE_LOOP($,(#254));
#127=CIRCLE($,#280,37.5);
#128=CIRCLE($,#281,37.5);
#129=CIRCLE($,#283,39.);
#130=CIRCLE($,#284,39.);
#131=CIRCLE($,#286,45.);
#132=CIRCLE($,#287,45.);
#133=CIRCLE($,#289,44.);
#134=CIRCLE($,#290,44.);
#135=VERTEX_POINT($,#382);
#136=VERTEX_POINT($,#384);
#137=VERTEX_POINT($,#387);
#138=VERTEX_POINT($,#389);
#139=VERTEX_POINT($,#392);
#140=VERTEX_POINT($,#394);
#141=VERTEX_POINT($,#397);
#142=VERTEX_POINT($,#399);
#143=VERTEX_POINT($,#402);
#144=VERTEX_POINT($,#403);
#145=VERTEX_POINT($,#405);
#146=VERTEX_POINT($,#407);
#147=VERTEX_POINT($,#411);
#148=VERTEX_POINT($,#412);
#149=VERTEX_POINT($,#417);
#150=VERTEX_POINT($,#419);
#151=VERTEX_POINT($,#423);
#152=VERTEX_POINT($,#425);
#153=VERTEX_POINT($,#427);
#154=VERTEX_POINT($,#429);
#155=VERTEX_POINT($,#433);
#156=VERTEX_POINT($,#435);
#157=VERTEX_POINT($,#437);
#158=VERTEX_POINT($,#439);
#159=EDGE_CURVE($,#135,#135,#127,.T.);
#160=EDGE_CURVE($,#136,#136,#128,.T.);
#161=EDGE_CURVE($,#137,#137,#129,.T.);
#162=EDGE_CURVE($,#138,#138,#130,.T.);
#163=EDGE_CURVE($,#139,#139,#131,.T.);
#164=EDGE_CURVE($,#140,#140,#132,.T.);
#165=EDGE_CURVE($,#141,#141,#133,.T.);
#166=EDGE_CURVE($,#142,#142,#134,.T.);
#167=EDGE_CURVE($,#143,#144,#12,.T.);
#168=EDGE_CURVE($,#143,#145,#13,.T.);
#169=EDGE_CURVE($,#145,#146,#14,.T.);
#170=EDGE_CURVE($,#144,#146,#15,.T.);
#171=EDGE_CURVE($,#147,#148,#16,.T.);
#172=EDGE_CURVE($,#147,#143,#17,.T.);
#173=EDGE_CURVE($,#148,#144,#18,.T.);
#174=EDGE_CURVE($,#145,#149,#19,.T.);
#175=EDGE_CURVE($,#149,#150,#20,.T.);
#176=EDGE_CURVE($,#146,#150,#21,.T.);
#177=EDGE_CURVE($,#151,#147,#22,.T.);
#178=EDGE_CURVE($,#152,#151,#23,.T.);
#179=EDGE_CURVE($,#153,#152,#24,.T.);
#180=EDGE_CURVE($,#154,#153,#25,.T.);
#181=EDGE_CURVE($,#149,#154,#26,.T.);
#182=EDGE_CURVE($,#150,#155,#27,.T.);
#183=EDGE_CURVE($,#155,#156,#28,.T.);
#184=EDGE_CURVE($,#156,#157,#29,.T.);
#185=EDGE_CURVE($,#157,#158,#30,.T.);
#186=EDGE_CURVE($,#158,#148,#31,.T.);
#187=EDGE_CURVE($,#151,#158,#32,.T.);
#188=EDGE_CURVE($,#154,#155,#33,.T.);
#189=EDGE_CURVE($,#152,#157,#34,.T.);
#190=EDGE_CURVE($,#153,#156,#35,.T.);
#191=ORIENTED_EDGE($,*,*,#159,.F.);
#192=ORIENTED_EDGE($,*,*,#160,.T.);
#193=ORIENTED_EDGE($,*,*,#161,.T.);
#194=ORIENTED_EDGE($,*,*,#162,.F.);
#195=ORIENTED_EDGE($,*,*,#163,.T.);
#196=ORIENTED_EDGE($,*,*,#164,.F.);
#197=ORIENTED_EDGE($,*,*,#165,.T.);
#198=ORIENTED_EDGE($,*,*,#166,.F.);
#199=ORIENTED_EDGE($,*,*,#167,.F.);
#200=ORIENTED_EDGE($,*,*,#168,.T.);
#201=ORIENTED_EDGE($,*,*,#169,.T.);
#202=ORIENTED_EDGE($,*,*,#170,.F.);
#203=ORIENTED_EDGE($,*,*,#171,.F.);
#204=ORIENTED_EDGE($,*,*,#172,.T.);
#205=ORIENTED_EDGE($,*,*,#167,.T.);
#206=ORIENTED_EDGE($,*,*,#173,.F.);
#207=ORIENTED_EDGE($,*,*,#169,.F.);
#208=ORIENTED_EDGE($,*,*,#174,.T.);
#209=ORIENTED_EDGE($,*,*,#175,.T.);
#210=ORIENTED_EDGE($,*,*,#176,.F.);
#211=ORIENTED_EDGE($,*,*,#168,.F.);
#212=ORIENTED_EDGE($,*,*,#172,.F.);
#213=ORIENTED_EDGE($,*,*,#177,.F.);
#214=ORIENTED_EDGE($,*,*,#178,.F.);
#215=ORIENTED_EDGE($,*,*,#179,.F.);
#216=ORIENTED_EDGE($,*,*,#180,.F.);
#217=ORIENTED_EDGE($,*,*,#181,.F.);
#218=ORIENTED_EDGE($,*,*,#174,.F.);
#219=ORIENTED_EDGE($,*,*,#166,.T.);
#220=ORIENTED_EDGE($,*,*,#170,.T.);
#221=ORIENTED_EDGE($,*,*,#176,.T.);
#222=ORIENTED_EDGE($,*,*,#182,.T.);
#223=ORIENTED_EDGE($,*,*,#183,.T.);
#224=ORIENTED_EDGE($,*,*,#184,.T.);
#225=ORIENTED_EDGE($,*,*,#185,.T.);
#226=ORIENTED_EDGE($,*,*,#186,.T.);
#227=ORIENTED_EDGE($,*,*,#173,.T.);
#228=ORIENTED_EDGE($,*,*,#163,.F.);
#229=ORIENTED_EDGE($,*,*,#187,.F.);
#230=ORIENTED_EDGE($,*,*,#177,.T.);
#231=ORIENTED_EDGE($,*,*,#171,.T.);
#232=ORIENTED_EDGE($,*,*,#186,.F.);
#233=ORIENTED_EDGE($,*,*,#175,.F.);
#234=ORIENTED_EDGE($,*,*,#181,.T.);
#235=ORIENTED_EDGE($,*,*,#188,.T.);
#236=ORIENTED_EDGE($,*,*,#182,.F.);
#237=ORIENTED_EDGE($,*,*,#189,.F.);
#238=ORIENTED_EDGE($,*,*,#178,.T.);
#239=ORIENTED_EDGE($,*,*,#187,.T.);
#240=ORIENTED_EDGE($,*,*,#185,.F.);
#241=ORIENTED_EDGE($,*,*,#188,.F.);
#242=ORIENTED_EDGE($,*,*,#180,.T.);
#243=ORIENTED_EDGE($,*,*,#190,.T.);
#244=ORIENTED_EDGE($,*,*,#183,.F.);
#245=ORIENTED_EDGE($,*,*,#190,.F.);
#246=ORIENTED_EDGE($,*,*,#179,.T.);
#247=ORIENTED_EDGE($,*,*,#189,.T.);
#248=ORIENTED_EDGE($,*,*,#184,.F.);
#249=ORIENTED_EDGE($,*,*,#165,.F.);
#250=ORIENTED_EDGE($,*,*,#162,.T.);
#251=ORIENTED_EDGE($,*,*,#164,.T.);
#252=ORIENTED_EDGE($,*,*,#160,.F.);
#253=ORIENTED_EDGE($,*,*,#159,.T.);
#254=ORIENTED_EDGE($,*,*,#161,.F.);
#255=CYLINDRICAL_SURFACE($,#279,37.5);
#256=CYLINDRICAL_SURFACE($,#282,39.);
#257=CYLINDRICAL_SURFACE($,#285,45.);
#258=CYLINDRICAL_SURFACE($,#288,44.);
#259=ADVANCED_FACE($,(#85,#75),#255,.F.);
#260=ADVANCED_FACE($,(#86,#76),#256,.F.);
#261=ADVANCED_FACE($,(#87,#77),#257,.T.);
#262=ADVANCED_FACE($,(#88,#78),#258,.T.);
#263=ADVANCED_FACE($,(#89),#60,.F.);
#264=ADVANCED_FACE($,(#90),#61,.F.);
#265=ADVANCED_FACE($,(#91),#62,.F.);
#266=ADVANCED_FACE($,(#92,#79),#63,.T.);
#267=ADVANCED_FACE($,(#93,#80),#64,.F.);
#268=ADVANCED_FACE($,(#94),#65,.F.);
#269=ADVANCED_FACE($,(#95),#66,.F.);
#270=ADVANCED_FACE($,(#96),#67,.F.);
#271=ADVANCED_FACE($,(#97),#68,.F.);
#272=ADVANCED_FACE($,(#98),#69,.F.);
#273=ADVANCED_FACE($,(#99,#81),#70,.F.);
#274=ADVANCED_FACE($,(#100,#82),#71,.T.);
#275=ADVANCED_FACE($,(#83,#84),#72,.F.);
#276=CLOSED_SHELL($,(#259,#260,#261,#262,#263,#264,#265,#266,#267,#268,
#269,#270,#271,#272,#273,#274,#275));
#277=MANIFOLD_SOLID_BREP('44B',#276);
#278=AXIS2_PLACEMENT_3D('placement',#380,#304,#305);
#279=AXIS2_PLACEMENT_3D($,#381,#306,#307);
#280=AXIS2_PLACEMENT_3D($,#383,#308,#309);
#281=AXIS2_PLACEMENT_3D($,#385,#310,#311);
#282=AXIS2_PLACEMENT_3D($,#386,#312,#313);
#283=AXIS2_PLACEMENT_3D($,#388,#314,#315);
#284=AXIS2_PLACEMENT_3D($,#390,#316,#317);
#285=AXIS2_PLACEMENT_3D($,#391,#318,#319);
#286=AXIS2_PLACEMENT_3D($,#393,#320,#321);
#287=AXIS2_PLACEMENT_3D($,#395,#322,#323);
#288=AXIS2_PLACEMENT_3D($,#396,#324,#325);
#289=AXIS2_PLACEMENT_3D($,#398,#326,#327);
#290=AXIS2_PLACEMENT_3D($,#400,#328,#329);
#291=AXIS2_PLACEMENT_3D($,#401,#330,#331);
#292=AXIS2_PLACEMENT_3D($,#410,#336,#337);
#293=AXIS2_PLACEMENT_3D($,#416,#341,#342);
#294=AXIS2_PLACEMENT_3D($,#422,#346,#347);
#295=AXIS2_PLACEMENT_3D($,#432,#353,#354);
#296=AXIS2_PLACEMENT_3D($,#442,#360,#361);
#297=AXIS2_PLACEMENT_3D($,#444,#363,#364);
#298=AXIS2_PLACEMENT_3D($,#446,#366,#367);
#299=AXIS2_PLACEMENT_3D($,#448,#369,#370);
#300=AXIS2_PLACEMENT_3D($,#450,#372,#373);
#301=AXIS2_PLACEMENT_3D($,#451,#374,#375);
#302=AXIS2_PLACEMENT_3D($,#452,#376,#377);
#303=AXIS2_PLACEMENT_3D($,#453,#378,#379);
#304=DIRECTION('axis',(0.,0.,1.));
#305=DIRECTION('refdir',(1.,0.,0.));
#306=DIRECTION('center_axis',(0.,0.,1.));
#307=DIRECTION('ref_axis',(1.,0.,0.));
#308=DIRECTION('center_axis',(0.,0.,1.));
#309=DIRECTION('ref_axis',(-1.,0.,0.));
#310=DIRECTION('center_axis',(0.,0.,1.));
#311=DIRECTION('ref_axis',(1.,0.,0.));
#312=DIRECTION('center_axis',(0.,0.,1.));
#313=DIRECTION('ref_axis',(1.,0.,0.));
#314=DIRECTION('center_axis',(0.,0.,1.));
#315=DIRECTION('ref_axis',(1.,0.,0.));
#316=DIRECTION('center_axis',(0.,0.,1.));
#317=DIRECTION('ref_axis',(1.,0.,0.));
#318=DIRECTION('center_axis',(0.,0.,1.));
#319=DIRECTION('ref_axis',(1.,0.,0.));
#320=DIRECTION('center_axis',(0.,0.,1.));
#321=DIRECTION('ref_axis',(1.,0.,0.));
#322=DIRECTION('center_axis',(0.,0.,1.));
#323=DIRECTION('ref_axis',(1.,0.,0.));
#324=DIRECTION('center_axis',(0.,0.,1.));
#325=DIRECTION('ref_axis',(1.,0.,0.));
#326=DIRECTION('center_axis',(0.,0.,1.));
#327=DIRECTION('ref_axis',(1.,0.,0.));
#328=DIRECTION('center_axis',(0.,0.,1.));
#329=DIRECTION('ref_axis',(1.,0.,0.));
#330=DIRECTION('center_axis',(-4.489658E-011,-1.,0.));
#331=DIRECTION('ref_axis',(0.,0.,-1.));
#332=DIRECTION($,(0.,0.,1.));
#333=DIRECTION($,(-1.,4.490453E-011,0.));
#334=DIRECTION($,(0.,0.,1.));
#335=DIRECTION($,(-1.,4.490453E-011,0.));
#336=DIRECTION('center_axis',(-0.707106781266048,-0.707106781107048,0.));
#337=DIRECTION('ref_axis',(0.,0.,1.));
#338=DIRECTION($,(0.,0.,1.));
#339=DIRECTION($,(-0.707106781107184,0.707106781265912,0.));
#340=DIRECTION($,(-0.707106781107184,0.707106781265912,0.));
#341=DIRECTION('center_axis',(0.707106781139048,-0.707106781234048,0.));
#342=DIRECTION('ref_axis',(0.,0.,-1.));
#343=DIRECTION($,(-0.707106781234082,-0.707106781139013,0.));
#344=DIRECTION($,(0.,0.,1.));
#345=DIRECTION($,(-0.707106781234082,-0.707106781139013,0.));
#346=DIRECTION('center_axis',(0.,0.,-1.));
#347=DIRECTION('ref_axis',(-1.,0.,0.));
#348=DIRECTION($,(1.795921E-010,1.,0.));
#349=DIRECTION($,(0.707106781297652,0.707106781075443,0.));
#350=DIRECTION($,(1.,-1.346879E-010,0.));
#351=DIRECTION($,(0.707106781107133,-0.707106781265962,0.));
#352=DIRECTION($,(-8.996109E-011,-1.,0.));
#353=DIRECTION('center_axis',(0.,0.,-1.));
#354=DIRECTION('ref_axis',(-1.,0.,0.));
#355=DIRECTION($,(-8.996109E-011,-1.,0.));
#356=DIRECTION($,(0.707106781107133,-0.707106781265962,0.));
#357=DIRECTION($,(1.,-1.346879E-010,0.));
#358=DIRECTION($,(0.707106781297652,0.707106781075443,0.));
#359=DIRECTION($,(1.795921E-010,1.,0.));
#360=DIRECTION('center_axis',(-1.,1.795865E-010,0.));
#361=DIRECTION('ref_axis',(0.,0.,1.));
#362=DIRECTION($,(0.,0.,1.));
#363=DIRECTION('center_axis',(1.,-8.97928E-011,0.));
#364=DIRECTION('ref_axis',(0.,0.,-1.));
#365=DIRECTION($,(0.,0.,1.));
#366=DIRECTION('center_axis',(-0.707106781075048,0.707106781298047,0.));
#367=DIRECTION('ref_axis',(0.,0.,1.));
#368=DIRECTION($,(0.,0.,1.));
#369=DIRECTION('center_axis',(0.707106781266048,0.707106781107048,0.));
#370=DIRECTION('ref_axis',(0.,0.,-1.));
#371=DIRECTION($,(0.,0.,1.));
#372=DIRECTION('center_axis',(1.346894E-010,1.,0.));
#373=DIRECTION('ref_axis',(0.,0.,1.));
#374=DIRECTION('center_axis',(0.,0.,1.));
#375=DIRECTION('ref_axis',(1.,0.,0.));
#376=DIRECTION('center_axis',(0.,0.,1.));
#377=DIRECTION('ref_axis',(1.,0.,0.));
#378=DIRECTION('center_axis',(0.,0.,1.));
#379=DIRECTION('ref_axis',(1.,0.,0.));
#380=CARTESIAN_POINT('',(0.,0.,0.));
#381=CARTESIAN_POINT('Origin',(0.,0.,56.));
#382=CARTESIAN_POINT('',(37.5,4.59242549680258E-015,33.5));
#383=CARTESIAN_POINT('Origin',(0.,0.,33.5));
#384=CARTESIAN_POINT('',(-37.5,-4.592274E-015,100.));
#385=CARTESIAN_POINT('Origin',(0.,0.,100.));
#386=CARTESIAN_POINT('Origin',(0.,0.,0.));
#387=CARTESIAN_POINT('',(-39.,-4.775965E-015,33.5));
#388=CARTESIAN_POINT('Origin',(0.,0.,33.5));
#389=CARTESIAN_POINT('',(-39.,-4.775965E-015,0.));
#390=CARTESIAN_POINT('Origin',(0.,0.,0.));
#391=CARTESIAN_POINT('Origin',(0.,0.,49.));
#392=CARTESIAN_POINT('',(-45.,-5.510729E-015,49.));
#393=CARTESIAN_POINT('Origin',(0.,0.,49.));
#394=CARTESIAN_POINT('',(-45.,-5.510729E-015,100.));
#395=CARTESIAN_POINT('Origin',(0.,0.,100.));
#396=CARTESIAN_POINT('Origin',(0.,0.,0.));
#397=CARTESIAN_POINT('',(-44.,-5.388268E-015,0.));
#398=CARTESIAN_POINT('Origin',(0.,0.,0.));
#399=CARTESIAN_POINT('',(-44.,-5.388268E-015,33.5));
#400=CARTESIAN_POINT('Origin',(0.,0.,33.5));
#401=CARTESIAN_POINT('Origin',(19.675144214596,47.5,33.5));
#402=CARTESIAN_POINT('',(19.675144214596,47.5,33.5));
#403=CARTESIAN_POINT('',(19.675144214596,47.5,49.));
#404=CARTESIAN_POINT($,(19.675144214596,47.5,33.5));
#405=CARTESIAN_POINT('',(-19.67514421033,47.500000001767,33.5));
#406=CARTESIAN_POINT($,(19.675144214596,47.5,33.5));
#407=CARTESIAN_POINT('',(-19.67514421033,47.500000001767,49.));
#408=CARTESIAN_POINT($,(-19.67514421033,47.500000001767,33.5));
#409=CARTESIAN_POINT($,(19.675144214596,47.5,49.));
#410=CARTESIAN_POINT('Origin',(47.500000004417,19.675144203933,33.5));
#411=CARTESIAN_POINT('',(47.500000004417,19.675144203933,33.5));
#412=CARTESIAN_POINT('',(47.500000004417,19.675144203933,49.));
#413=CARTESIAN_POINT($,(47.500000004417,19.675144203933,33.5));
#414=CARTESIAN_POINT($,(47.500000004417,19.675144203933,33.5));
#415=CARTESIAN_POINT($,(47.500000004417,19.675144203933,49.));
#416=CARTESIAN_POINT('Origin',(-19.67514421033,47.500000001767,33.5));
#417=CARTESIAN_POINT('',(-47.49999999911,19.675144216728,33.5));
#418=CARTESIAN_POINT($,(-19.67514421033,47.500000001767,33.5));
#419=CARTESIAN_POINT('',(-47.49999999911,19.675144216728,49.));
#420=CARTESIAN_POINT($,(-47.49999999911,19.675144216728,33.5));
#421=CARTESIAN_POINT($,(-19.67514421033,47.500000001767,49.));
#422=CARTESIAN_POINT('Origin',(19.675144214596,47.5,33.5));
#423=CARTESIAN_POINT('',(47.49999999735,-19.67514422099,33.5));
#424=CARTESIAN_POINT($,(47.49999999735,-19.67514422099,33.5));
#425=CARTESIAN_POINT('',(19.675144206066,-47.50000000353,33.5));
#426=CARTESIAN_POINT($,(19.675144206066,-47.50000000353,33.5));
#427=CARTESIAN_POINT('',(-19.67514421886,-47.49999999823,33.5));
#428=CARTESIAN_POINT($,(-19.67514421886,-47.49999999823,33.5));
#429=CARTESIAN_POINT('',(-47.50000000265,-19.67514420819,33.5));
#430=CARTESIAN_POINT($,(-47.50000000265,-19.67514420819,33.5));
#431=CARTESIAN_POINT($,(-47.49999999911,19.675144216728,33.5));
#432=CARTESIAN_POINT('Origin',(19.675144214596,47.5,49.));
#433=CARTESIAN_POINT('',(-47.50000000265,-19.67514420819,49.));
#434=CARTESIAN_POINT($,(-47.49999999911,19.675144216728,49.));
#435=CARTESIAN_POINT('',(-19.67514421886,-47.49999999823,49.));
#436=CARTESIAN_POINT($,(-47.50000000265,-19.67514420819,49.));
#437=CARTESIAN_POINT('',(19.675144206066,-47.50000000353,49.));
#438=CARTESIAN_POINT($,(-19.67514421886,-47.49999999823,49.));
#439=CARTESIAN_POINT('',(47.49999999735,-19.67514422099,49.));
#440=CARTESIAN_POINT($,(19.675144206066,-47.50000000353,49.));
#441=CARTESIAN_POINT($,(47.49999999735,-19.67514422099,49.));
#442=CARTESIAN_POINT('Origin',(47.49999999735,-19.67514422099,33.5));
#443=CARTESIAN_POINT($,(47.49999999735,-19.67514422099,33.5));
#444=CARTESIAN_POINT('Origin',(-47.49999999911,19.675144216728,33.5));
#445=CARTESIAN_POINT($,(-47.50000000265,-19.67514420819,33.5));
#446=CARTESIAN_POINT('Origin',(19.675144206066,-47.50000000353,33.5));
#447=CARTESIAN_POINT($,(19.675144206066,-47.50000000353,33.5));
#448=CARTESIAN_POINT('Origin',(-47.50000000265,-19.67514420819,33.5));
#449=CARTESIAN_POINT($,(-19.67514421886,-47.49999999823,33.5));
#450=CARTESIAN_POINT('Origin',(-19.67514421886,-47.49999999823,33.5));
#451=CARTESIAN_POINT('Origin',(0.,0.,0.));
#452=CARTESIAN_POINT('Origin',(0.,0.,100.));
#453=CARTESIAN_POINT('Origin',(0.,0.,33.5));
#454=UNCERTAINTY_MEASURE_WITH_UNIT(LENGTH_MEASURE(0.01),#456,
'DISTANCE_ACCURACY_VALUE',
'Maximum model space distance between geometric entities at asserted c
onnectivities');
#455=(
GEOMETRIC_REPRESENTATION_CONTEXT(3)
GLOBAL_UNCERTAINTY_ASSIGNED_CONTEXT((#454))
GLOBAL_UNIT_ASSIGNED_CONTEXT((#456,#459,#457))
REPRESENTATION_CONTEXT('','3D')
);
#456=(
LENGTH_UNIT()
NAMED_UNIT(*)
SI_UNIT(.MILLI.,.METRE.)
);
#457=(
NAMED_UNIT(*)
SI_UNIT($,.STERADIAN.)
SOLID_ANGLE_UNIT()
);
#458=DIMENSIONAL_EXPONENTS(0.,0.,0.,0.,0.,0.,0.);
#459=(
CONVERSION_BASED_UNIT('degree',#461)
NAMED_UNIT(#458)
PLANE_ANGLE_UNIT()
);
#460=(
NAMED_UNIT(*)
PLANE_ANGLE_UNIT()
SI_UNIT($,.RADIAN.)
);
#461=PLANE_ANGLE_MEASURE_WITH_UNIT(PLANE_ANGLE_MEASURE(0.01745329252),#460);
#462=SHAPE_DEFINITION_REPRESENTATION(#463,#464);
#463=PRODUCT_DEFINITION_SHAPE('',$,#466);
#464=SHAPE_REPRESENTATION('',(#278),#455);
#465=PRODUCT_DEFINITION_CONTEXT('3D Mechanical Parts',#469,'design');
#466=PRODUCT_DEFINITION('KIFV090075300','KIFV090075300',#467,#465);
#467=PRODUCT_DEFINITION_FORMATION('',$,#471);
#468=APPLICATION_PROTOCOL_DEFINITION('international standard',
'automotive_design',2009,#469);
#469=APPLICATION_CONTEXT(
'Core Data for Automotive Mechanical Design Process');
#470=PRODUCT_CONTEXT('3D Mechanical Parts',#469,'mechanical');
#471=PRODUCT('KIFV090075300','KIFV090075300',$,(#470));
#472=PRESENTATION_STYLE_ASSIGNMENT((#474));
#473=PRESENTATION_STYLE_ASSIGNMENT((#475));
#474=SURFACE_STYLE_USAGE(.BOTH.,#476);
#475=SURFACE_STYLE_USAGE(.BOTH.,#477);
#476=SURFACE_SIDE_STYLE($,(#478));
#477=SURFACE_SIDE_STYLE($,(#479));
#478=SURFACE_STYLE_FILL_AREA(#480);
#479=SURFACE_STYLE_FILL_AREA(#481);
#480=FILL_AREA_STYLE($,(#482));
#481=FILL_AREA_STYLE($,(#483));
#482=FILL_AREA_STYLE_COLOUR($,#484);
#483=FILL_AREA_STYLE_COLOUR($,#485);
#484=COLOUR_RGB('',0.509803921568627,0.509803921568627,0.588235294117647);
#485=COLOUR_RGB('',1.,0.,0.);
ENDSEC;
END-ISO-10303-21;
