ISO-10303-21;
HEADER;
FILE_DESCRIPTION( ( 'STEP AP203' ), '1' );
FILE_NAME( 'p:/temp/worker_104/temp/exporttempdir_2012_75_7CfGo/format_0/30006011033(architecture400).stp', '2022-04-26T10:40:48', ( 'License CC BY-ND 4.0' ), ( 'CADENAS' ), ' ', 'PARTsolutions', ' ' );
FILE_SCHEMA( ( 'CONFIG_CONTROL_DESIGN' ) );
ENDSEC;
DATA;
#1 = DESIGN_CONTEXT( '', #27, 'design' );
#2 = APPLICATION_PROTOCOL_DEFINITION( 'international standard', 'config_control_design', 1994, #27 );
#3 = PRODUCT_CATEGORY_RELATIONSHIP( 'NONE', 'NONE', #28, #29 );
#4 = DATE_AND_TIME( #30, #31 );
#5 = DATE_TIME_ROLE( 'creation_date' );
#6 = DATE_TIME_ROLE( 'classification_date' );
#7 = PERSON_AND_ORGANIZATION_ROLE( 'creator' );
#8 = PERSON_AND_ORGANIZATION_ROLE( 'design_supplier' );
#9 = PERSON_AND_ORGANIZATION_ROLE( 'classification_officer' );
#10 = PERSON_AND_ORGANIZATION_ROLE( 'design_owner' );
#11 = APPROVAL_PERSON_ORGANIZATION( #32, #33, #34 );
#12 = APPROVAL_DATE_TIME( #4, #33 );
#13 = CC_DESIGN_APPROVAL( #33, ( #35, #36, #37 ) );
#14 = CC_DESIGN_DATE_AND_TIME_ASSIGNMENT( #4, #5, ( #37 ) );
#15 = CC_DESIGN_DATE_AND_TIME_ASSIGNMENT( #4, #6, ( #35 ) );
#16 = CC_DESIGN_PERSON_AND_ORGANIZATION_ASSIGNMENT( #32, #10, ( #38 ) );
#17 = CC_DESIGN_PERSON_AND_ORGANIZATION_ASSIGNMENT( #32, #7, ( #37 ) );
#18 = CC_DESIGN_PERSON_AND_ORGANIZATION_ASSIGNMENT( #32, #7, ( #36 ) );
#19 = CC_DESIGN_PERSON_AND_ORGANIZATION_ASSIGNMENT( #32, #8, ( #36 ) );
#20 = CC_DESIGN_SECURITY_CLASSIFICATION( #35, ( #36 ) );
#21 = CC_DESIGN_PERSON_AND_ORGANIZATION_ASSIGNMENT( #32, #9, ( #35 ) );
#22 = SHAPE_DEFINITION_REPRESENTATION( #39, #40 );
#23 =  ( GEOMETRIC_REPRESENTATION_CONTEXT( 3 )GLOBAL_UNCERTAINTY_ASSIGNED_CONTEXT( ( #43 ) )GLOBAL_UNIT_ASSIGNED_CONTEXT( ( #45, #46, #47 ) )REPRESENTATION_CONTEXT( 'NONE', 'WORKSPACE' ) );
#27 = APPLICATION_CONTEXT( 'configuration controlled 3D designs of mechanical parts and assemblies' );
#28 = PRODUCT_CATEGORY( 'part', 'NONE' );
#29 = PRODUCT_RELATED_PRODUCT_CATEGORY( 'detail', ' ', ( #38 ) );
#30 = CALENDAR_DATE( 2022, 26, 3 );
#31 = LOCAL_TIME( 12, 40, 48.0000000000000, #49 );
#32 = PERSON_AND_ORGANIZATION( #50, #51 );
#33 = APPROVAL( #52, 'SOLID MODEL' );
#34 = APPROVAL_ROLE( 'APPROVED' );
#35 = SECURITY_CLASSIFICATION( '', '', #53 );
#36 = PRODUCT_DEFINITION_FORMATION_WITH_SPECIFIED_SOURCE( ' ', 'NONE', #38, .NOT_KNOWN. );
#37 = PRODUCT_DEFINITION( 'NONE', 'NONE', #36, #1 );
#38 = PRODUCT( '_30006011033(architecture400)', '_30006011033(architecture400)', 'PART-_30006011033(architecture400)-DESC', ( #54 ) );
#39 = PRODUCT_DEFINITION_SHAPE( 'NONE', 'NONE', #37 );
#40 = ADVANCED_BREP_SHAPE_REPRESENTATION( '_30006011033(architecture400)', ( #55, #56 ), #23 );
#43 = UNCERTAINTY_MEASURE_WITH_UNIT( LENGTH_MEASURE( 0.00100000000000000 ), #45, '', '' );
#45 =  ( CONVERSION_BASED_UNIT( 'MILLIMETRE', #59 )LENGTH_UNIT(  )NAMED_UNIT( #62 ) );
#46 =  ( NAMED_UNIT( #64 )PLANE_ANGLE_UNIT(  )SI_UNIT( $, .RADIAN. ) );
#47 =  ( NAMED_UNIT( #64 )SI_UNIT( $, .STERADIAN. )SOLID_ANGLE_UNIT(  ) );
#49 = COORDINATED_UNIVERSAL_TIME_OFFSET( 1, 0, .AHEAD. );
#50 = PERSON( '', 'UNSPECIFIED', $, $, $, $ );
#51 = ORGANIZATION( 'UNSPECIFIED', 'UNSPECIFIED', 'UNSPECIFIED' );
#52 = APPROVAL_STATUS( 'approved' );
#53 = SECURITY_CLASSIFICATION_LEVEL( 'unclassified' );
#54 = MECHANICAL_CONTEXT( '', #27, 'mechanical' );
#55 = MANIFOLD_SOLID_BREP( '_30006011033(architecture400)', #70 );
#56 = AXIS2_PLACEMENT_3D( '', #71, #72, #73 );
#59 = LENGTH_MEASURE_WITH_UNIT( LENGTH_MEASURE( 1.00000000000000 ), #74 );
#62 = DIMENSIONAL_EXPONENTS( 1.00000000000000, 0.000000000000000, 0.000000000000000, 0.000000000000000, 0.000000000000000, 0.000000000000000, 0.000000000000000 );
#64 = DIMENSIONAL_EXPONENTS( 0.000000000000000, 0.000000000000000, 0.000000000000000, 0.000000000000000, 0.000000000000000, 0.000000000000000, 0.000000000000000 );
#70 = CLOSED_SHELL( '', ( #75, #76, #77, #78, #79, #80, #81, #82, #83, #84, #85, #86, #87 ) );
#71 = CARTESIAN_POINT( '', ( 0.000000000000000, 0.000000000000000, 0.000000000000000 ) );
#72 = DIRECTION( '', ( 0.000000000000000, 0.000000000000000, 1.00000000000000 ) );
#73 = DIRECTION( '', ( 1.00000000000000, 0.000000000000000, 0.000000000000000 ) );
#74 =  ( LENGTH_UNIT(  )NAMED_UNIT( #62 )SI_UNIT( .MILLI., .METRE. ) );
#75 = ADVANCED_FACE( '', ( #89, #90, #91 ), #92, .F. );
#76 = ADVANCED_FACE( '', ( #93, #94, #95 ), #96, .T. );
#77 = ADVANCED_FACE( '', ( #97, #98 ), #99, .T. );
#78 = ADVANCED_FACE( '', ( #100, #101 ), #102, .T. );
#79 = ADVANCED_FACE( '', ( #103, #104 ), #105, .T. );
#80 = ADVANCED_FACE( '', ( #106, #107 ), #108, .F. );
#81 = ADVANCED_FACE( '', ( #109, #110 ), #111, .F. );
#82 = ADVANCED_FACE( '', ( #112, #113 ), #114, .T. );
#83 = ADVANCED_FACE( '', ( #115, #116 ), #117, .T. );
#84 = ADVANCED_FACE( '', ( #118, #119 ), #120, .T. );
#85 = ADVANCED_FACE( '', ( #121, #122 ), #123, .T. );
#86 = ADVANCED_FACE( '', ( #124, #125 ), #126, .F. );
#87 = ADVANCED_FACE( '', ( #127, #128 ), #129, .F. );
#89 = FACE_OUTER_BOUND( '', #130, .T. );
#90 = FACE_OUTER_BOUND( '', #131, .T. );
#91 = FACE_BOUND( '', #132, .T. );
#92 = CYLINDRICAL_SURFACE( '', #133, 51.6000000000000 );
#93 = FACE_OUTER_BOUND( '', #134, .T. );
#94 = FACE_BOUND( '', #135, .T. );
#95 = FACE_OUTER_BOUND( '', #136, .T. );
#96 = CYLINDRICAL_SURFACE( '', #137, 56.7000000000000 );
#97 = FACE_OUTER_BOUND( '', #138, .T. );
#98 = FACE_OUTER_BOUND( '', #139, .T. );
#99 = CYLINDRICAL_SURFACE( '', #140, 56.7000000000000 );
#100 = FACE_OUTER_BOUND( '', #141, .T. );
#101 = FACE_BOUND( '', #142, .T. );
#102 = CONICAL_SURFACE( '', #143, 55.0000000000000, 0.785398163400000 );
#103 = FACE_OUTER_BOUND( '', #144, .T. );
#104 = FACE_OUTER_BOUND( '', #145, .T. );
#105 = CYLINDRICAL_SURFACE( '', #146, 55.0000000000000 );
#106 = FACE_OUTER_BOUND( '', #147, .T. );
#107 = FACE_BOUND( '', #148, .T. );
#108 = PLANE( '', #149 );
#109 = FACE_BOUND( '', #150, .T. );
#110 = FACE_OUTER_BOUND( '', #151, .T. );
#111 = PLANE( '', #152 );
#112 = FACE_OUTER_BOUND( '', #153, .T. );
#113 = FACE_OUTER_BOUND( '', #154, .T. );
#114 = CYLINDRICAL_SURFACE( '', #155, 55.0000000000000 );
#115 = FACE_BOUND( '', #156, .T. );
#116 = FACE_OUTER_BOUND( '', #157, .T. );
#117 = CONICAL_SURFACE( '', #158, 56.7000000000000, 0.785398163400000 );
#118 = FACE_OUTER_BOUND( '', #159, .T. );
#119 = FACE_BOUND( '', #160, .T. );
#120 = CONICAL_SURFACE( '', #161, 55.0000000000000, 0.785398163400000 );
#121 = FACE_OUTER_BOUND( '', #162, .T. );
#122 = FACE_OUTER_BOUND( '', #163, .T. );
#123 = CYLINDRICAL_SURFACE( '', #164, 55.0000000000000 );
#124 = FACE_OUTER_BOUND( '', #165, .T. );
#125 = FACE_BOUND( '', #166, .T. );
#126 = PLANE( '', #167 );
#127 = FACE_OUTER_BOUND( '', #168, .T. );
#128 = FACE_OUTER_BOUND( '', #169, .T. );
#129 = CYLINDRICAL_SURFACE( '', #170, 51.6000000000000 );
#130 = EDGE_LOOP( '', ( #171 ) );
#131 = EDGE_LOOP( '', ( #172 ) );
#132 = EDGE_LOOP( '', ( #173, #174 ) );
#133 = AXIS2_PLACEMENT_3D( '', #175, #176, #177 );
#134 = EDGE_LOOP( '', ( #178 ) );
#135 = EDGE_LOOP( '', ( #179, #180 ) );
#136 = EDGE_LOOP( '', ( #181 ) );
#137 = AXIS2_PLACEMENT_3D( '', #182, #183, #184 );
#138 = EDGE_LOOP( '', ( #185, #186 ) );
#139 = EDGE_LOOP( '', ( #187 ) );
#140 = AXIS2_PLACEMENT_3D( '', #188, #189, #190 );
#141 = EDGE_LOOP( '', ( #191 ) );
#142 = EDGE_LOOP( '', ( #192 ) );
#143 = AXIS2_PLACEMENT_3D( '', #193, #194, #195 );
#144 = EDGE_LOOP( '', ( #196 ) );
#145 = EDGE_LOOP( '', ( #197 ) );
#146 = AXIS2_PLACEMENT_3D( '', #198, #199, #200 );
#147 = EDGE_LOOP( '', ( #201 ) );
#148 = EDGE_LOOP( '', ( #202 ) );
#149 = AXIS2_PLACEMENT_3D( '', #203, #204, #205 );
#150 = EDGE_LOOP( '', ( #206 ) );
#151 = EDGE_LOOP( '', ( #207 ) );
#152 = AXIS2_PLACEMENT_3D( '', #208, #209, #210 );
#153 = EDGE_LOOP( '', ( #211 ) );
#154 = EDGE_LOOP( '', ( #212 ) );
#155 = AXIS2_PLACEMENT_3D( '', #213, #214, #215 );
#156 = EDGE_LOOP( '', ( #216 ) );
#157 = EDGE_LOOP( '', ( #217 ) );
#158 = AXIS2_PLACEMENT_3D( '', #218, #219, #220 );
#159 = EDGE_LOOP( '', ( #221 ) );
#160 = EDGE_LOOP( '', ( #222 ) );
#161 = AXIS2_PLACEMENT_3D( '', #223, #224, #225 );
#162 = EDGE_LOOP( '', ( #226 ) );
#163 = EDGE_LOOP( '', ( #227 ) );
#164 = AXIS2_PLACEMENT_3D( '', #228, #229, #230 );
#165 = EDGE_LOOP( '', ( #231 ) );
#166 = EDGE_LOOP( '', ( #232 ) );
#167 = AXIS2_PLACEMENT_3D( '', #233, #234, #235 );
#168 = EDGE_LOOP( '', ( #236, #237 ) );
#169 = EDGE_LOOP( '', ( #238 ) );
#170 = AXIS2_PLACEMENT_3D( '', #239, #240, #241 );
#171 = ORIENTED_EDGE( '', *, *, #242, .T. );
#172 = ORIENTED_EDGE( '', *, *, #243, .T. );
#173 = ORIENTED_EDGE( '', *, *, #244, .T. );
#174 = ORIENTED_EDGE( '', *, *, #245, .T. );
#175 = CARTESIAN_POINT( '', ( 1.00000000000000, 0.000000000000000, 0.000000000000000 ) );
#176 = DIRECTION( '', ( 1.00000000000000, -0.000000000000000, -0.000000000000000 ) );
#177 = DIRECTION( '', ( 0.000000000000000, 0.000000000000000, 1.00000000000000 ) );
#178 = ORIENTED_EDGE( '', *, *, #246, .F. );
#179 = ORIENTED_EDGE( '', *, *, #247, .F. );
#180 = ORIENTED_EDGE( '', *, *, #248, .F. );
#181 = ORIENTED_EDGE( '', *, *, #249, .T. );
#182 = CARTESIAN_POINT( '', ( 0.000000000000000, 0.000000000000000, 0.000000000000000 ) );
#183 = DIRECTION( '', ( -1.00000000000000, -0.000000000000000, 0.000000000000000 ) );
#184 = DIRECTION( '', ( -0.000000000000000, 0.000000000000000, -1.00000000000000 ) );
#185 = ORIENTED_EDGE( '', *, *, #247, .T. );
#186 = ORIENTED_EDGE( '', *, *, #248, .T. );
#187 = ORIENTED_EDGE( '', *, *, #250, .T. );
#188 = CARTESIAN_POINT( '', ( -110.500000000000, 0.000000000000000, 0.000000000000000 ) );
#189 = DIRECTION( '', ( 0.000000000000000, -0.000000000000000, 1.00000000000000 ) );
#190 = DIRECTION( '', ( -1.00000000000000, 0.000000000000000, 0.000000000000000 ) );
#191 = ORIENTED_EDGE( '', *, *, #250, .F. );
#192 = ORIENTED_EDGE( '', *, *, #251, .T. );
#193 = CARTESIAN_POINT( '', ( -110.500000000000, 0.000000000000000, 76.5000000000000 ) );
#194 = DIRECTION( '', ( -0.000000000000000, -0.000000000000000, -1.00000000000000 ) );
#195 = DIRECTION( '', ( -1.00000000000000, 0.000000000000000, 0.000000000000000 ) );
#196 = ORIENTED_EDGE( '', *, *, #251, .F. );
#197 = ORIENTED_EDGE( '', *, *, #252, .T. );
#198 = CARTESIAN_POINT( '', ( -110.500000000000, 0.000000000000000, 0.000000000000000 ) );
#199 = DIRECTION( '', ( 0.000000000000000, -0.000000000000000, 1.00000000000000 ) );
#200 = DIRECTION( '', ( -1.00000000000000, 0.000000000000000, 0.000000000000000 ) );
#201 = ORIENTED_EDGE( '', *, *, #252, .F. );
#202 = ORIENTED_EDGE( '', *, *, #253, .F. );
#203 = CARTESIAN_POINT( '', ( -110.500000000000, 0.000000000000000, 110.000000000000 ) );
#204 = DIRECTION( '', ( -0.000000000000000, 0.000000000000000, -1.00000000000000 ) );
#205 = DIRECTION( '', ( -1.00000000000000, 0.000000000000000, 0.000000000000000 ) );
#206 = ORIENTED_EDGE( '', *, *, #242, .F. );
#207 = ORIENTED_EDGE( '', *, *, #254, .T. );
#208 = CARTESIAN_POINT( '', ( 0.000000000000000, 0.000000000000000, 55.0000000000000 ) );
#209 = DIRECTION( '', ( -1.00000000000000, 0.000000000000000, 0.000000000000000 ) );
#210 = DIRECTION( '', ( 0.000000000000000, 0.000000000000000, 1.00000000000000 ) );
#211 = ORIENTED_EDGE( '', *, *, #254, .F. );
#212 = ORIENTED_EDGE( '', *, *, #255, .T. );
#213 = CARTESIAN_POINT( '', ( 0.000000000000000, 0.000000000000000, 0.000000000000000 ) );
#214 = DIRECTION( '', ( -1.00000000000000, -0.000000000000000, 0.000000000000000 ) );
#215 = DIRECTION( '', ( -0.000000000000000, 0.000000000000000, -1.00000000000000 ) );
#216 = ORIENTED_EDGE( '', *, *, #255, .F. );
#217 = ORIENTED_EDGE( '', *, *, #246, .T. );
#218 = CARTESIAN_POINT( '', ( -35.2000000000000, 0.000000000000000, 0.000000000000000 ) );
#219 = DIRECTION( '', ( -1.00000000000000, 0.000000000000000, -0.000000000000000 ) );
#220 = DIRECTION( '', ( 0.000000000000000, 0.000000000000000, 1.00000000000000 ) );
#221 = ORIENTED_EDGE( '', *, *, #249, .F. );
#222 = ORIENTED_EDGE( '', *, *, #256, .T. );
#223 = CARTESIAN_POINT( '', ( -187.500000000000, 0.000000000000000, 0.000000000000000 ) );
#224 = DIRECTION( '', ( 1.00000000000000, -0.000000000000000, -0.000000000000000 ) );
#225 = DIRECTION( '', ( -0.000000000000000, 0.000000000000000, -1.00000000000000 ) );
#226 = ORIENTED_EDGE( '', *, *, #256, .F. );
#227 = ORIENTED_EDGE( '', *, *, #257, .T. );
#228 = CARTESIAN_POINT( '', ( 0.000000000000000, 0.000000000000000, 0.000000000000000 ) );
#229 = DIRECTION( '', ( -1.00000000000000, -0.000000000000000, 0.000000000000000 ) );
#230 = DIRECTION( '', ( -0.000000000000000, 0.000000000000000, -1.00000000000000 ) );
#231 = ORIENTED_EDGE( '', *, *, #257, .F. );
#232 = ORIENTED_EDGE( '', *, *, #243, .F. );
#233 = CARTESIAN_POINT( '', ( -221.000000000000, 0.000000000000000, 0.000000000000000 ) );
#234 = DIRECTION( '', ( 1.00000000000000, 0.000000000000000, -0.000000000000000 ) );
#235 = DIRECTION( '', ( -0.000000000000000, 0.000000000000000, -1.00000000000000 ) );
#236 = ORIENTED_EDGE( '', *, *, #244, .F. );
#237 = ORIENTED_EDGE( '', *, *, #245, .F. );
#238 = ORIENTED_EDGE( '', *, *, #253, .T. );
#239 = CARTESIAN_POINT( '', ( -110.500000000000, 0.000000000000000, 111.000000000000 ) );
#240 = DIRECTION( '', ( 0.000000000000000, -0.000000000000000, 1.00000000000000 ) );
#241 = DIRECTION( '', ( -1.00000000000000, 0.000000000000000, 0.000000000000000 ) );
#242 = EDGE_CURVE( '', #258, #258, #259, .F. );
#243 = EDGE_CURVE( '', #260, #260, #261, .F. );
#244 = EDGE_CURVE( '', #262, #263, #264, .T. );
#245 = EDGE_CURVE( '', #263, #262, #265, .F. );
#246 = EDGE_CURVE( '', #266, #266, #267, .T. );
#247 = EDGE_CURVE( '', #268, #269, #270, .T. );
#248 = EDGE_CURVE( '', #269, #268, #271, .F. );
#249 = EDGE_CURVE( '', #272, #272, #273, .T. );
#250 = EDGE_CURVE( '', #274, #274, #275, .T. );
#251 = EDGE_CURVE( '', #276, #276, #277, .T. );
#252 = EDGE_CURVE( '', #278, #278, #279, .T. );
#253 = EDGE_CURVE( '', #280, #280, #281, .F. );
#254 = EDGE_CURVE( '', #282, #282, #283, .T. );
#255 = EDGE_CURVE( '', #284, #284, #285, .T. );
#256 = EDGE_CURVE( '', #286, #286, #287, .T. );
#257 = EDGE_CURVE( '', #288, #288, #289, .T. );
#258 = VERTEX_POINT( '', #290 );
#259 = CIRCLE( '', #291, 51.6000000000000 );
#260 = VERTEX_POINT( '', #292 );
#261 = CIRCLE( '', #293, 51.6000000000000 );
#262 = VERTEX_POINT( '', #294 );
#263 = VERTEX_POINT( '', #295 );
#264 = ELLIPSE( '', #296, 72.9734198185000, 51.6000000000000 );
#265 = ELLIPSE( '', #297, 72.9734198185000, 51.6000000000000 );
#266 = VERTEX_POINT( '', #298 );
#267 = CIRCLE( '', #299, 56.7000000000000 );
#268 = VERTEX_POINT( '', #300 );
#269 = VERTEX_POINT( '', #301 );
#270 = ELLIPSE( '', #302, 80.1859089866000, 56.7000000000000 );
#271 = ELLIPSE( '', #303, 80.1859089866000, 56.7000000000000 );
#272 = VERTEX_POINT( '', #304 );
#273 = CIRCLE( '', #305, 56.7000000000000 );
#274 = VERTEX_POINT( '', #306 );
#275 = CIRCLE( '', #307, 56.7000000000000 );
#276 = VERTEX_POINT( '', #308 );
#277 = CIRCLE( '', #309, 55.0000000000000 );
#278 = VERTEX_POINT( '', #310 );
#279 = CIRCLE( '', #311, 55.0000000000000 );
#280 = VERTEX_POINT( '', #312 );
#281 = CIRCLE( '', #313, 51.6000000000000 );
#282 = VERTEX_POINT( '', #314 );
#283 = CIRCLE( '', #315, 55.0000000000000 );
#284 = VERTEX_POINT( '', #316 );
#285 = CIRCLE( '', #317, 55.0000000000000 );
#286 = VERTEX_POINT( '', #318 );
#287 = CIRCLE( '', #319, 55.0000000000000 );
#288 = VERTEX_POINT( '', #320 );
#289 = CIRCLE( '', #321, 55.0000000000000 );
#290 = CARTESIAN_POINT( '', ( 0.000000000000000, 0.000000000000000, 51.6000000000000 ) );
#291 = AXIS2_PLACEMENT_3D( '', #322, #323, #324 );
#292 = CARTESIAN_POINT( '', ( -221.000000000000, 0.000000000000000, -51.6000000000000 ) );
#293 = AXIS2_PLACEMENT_3D( '', #325, #326, #327 );
#294 = CARTESIAN_POINT( '', ( -110.500000000000, -51.6000000000000, 0.000000000000000 ) );
#295 = CARTESIAN_POINT( '', ( -110.500000000000, 51.6000000000000, 0.000000000000000 ) );
#296 = AXIS2_PLACEMENT_3D( '', #328, #329, #330 );
#297 = AXIS2_PLACEMENT_3D( '', #331, #332, #333 );
#298 = CARTESIAN_POINT( '', ( -35.2000000000000, 0.000000000000000, -56.7000000000000 ) );
#299 = AXIS2_PLACEMENT_3D( '', #334, #335, #336 );
#300 = CARTESIAN_POINT( '', ( -110.500000000000, 56.7000000000000, 0.000000000000000 ) );
#301 = CARTESIAN_POINT( '', ( -110.500000000000, -56.7000000000000, 0.000000000000000 ) );
#302 = AXIS2_PLACEMENT_3D( '', #337, #338, #339 );
#303 = AXIS2_PLACEMENT_3D( '', #340, #341, #342 );
#304 = CARTESIAN_POINT( '', ( -185.800000000000, 0.000000000000000, -56.7000000000000 ) );
#305 = AXIS2_PLACEMENT_3D( '', #343, #344, #345 );
#306 = CARTESIAN_POINT( '', ( -167.200000000000, 0.000000000000000, 74.8000000000000 ) );
#307 = AXIS2_PLACEMENT_3D( '', #346, #347, #348 );
#308 = CARTESIAN_POINT( '', ( -165.500000000000, 0.000000000000000, 76.5000000000000 ) );
#309 = AXIS2_PLACEMENT_3D( '', #349, #350, #351 );
#310 = CARTESIAN_POINT( '', ( -165.500000000000, 0.000000000000000, 110.000000000000 ) );
#311 = AXIS2_PLACEMENT_3D( '', #352, #353, #354 );
#312 = CARTESIAN_POINT( '', ( -162.100000000000, 0.000000000000000, 110.000000000000 ) );
#313 = AXIS2_PLACEMENT_3D( '', #355, #356, #357 );
#314 = CARTESIAN_POINT( '', ( 0.000000000000000, 0.000000000000000, -55.0000000000000 ) );
#315 = AXIS2_PLACEMENT_3D( '', #358, #359, #360 );
#316 = CARTESIAN_POINT( '', ( -33.5000000000000, 0.000000000000000, -55.0000000000000 ) );
#317 = AXIS2_PLACEMENT_3D( '', #361, #362, #363 );
#318 = CARTESIAN_POINT( '', ( -187.500000000000, 0.000000000000000, -55.0000000000000 ) );
#319 = AXIS2_PLACEMENT_3D( '', #364, #365, #366 );
#320 = CARTESIAN_POINT( '', ( -221.000000000000, 0.000000000000000, -55.0000000000000 ) );
#321 = AXIS2_PLACEMENT_3D( '', #367, #368, #369 );
#322 = CARTESIAN_POINT( '', ( 0.000000000000000, 0.000000000000000, 0.000000000000000 ) );
#323 = DIRECTION( '', ( -1.00000000000000, 0.000000000000000, 0.000000000000000 ) );
#324 = DIRECTION( '', ( 0.000000000000000, 0.000000000000000, 1.00000000000000 ) );
#325 = CARTESIAN_POINT( '', ( -221.000000000000, 0.000000000000000, 0.000000000000000 ) );
#326 = DIRECTION( '', ( 1.00000000000000, 0.000000000000000, -0.000000000000000 ) );
#327 = DIRECTION( '', ( -0.000000000000000, 0.000000000000000, -1.00000000000000 ) );
#328 = CARTESIAN_POINT( '', ( -110.500000000000, 0.000000000000000, 0.000000000000000 ) );
#329 = DIRECTION( '', ( -0.707106781186547, 0.000000000000000, 0.707106781186548 ) );
#330 = DIRECTION( '', ( -0.707106781186548, 0.000000000000000, -0.707106781186547 ) );
#331 = CARTESIAN_POINT( '', ( -110.500000000000, 0.000000000000000, 0.000000000000000 ) );
#332 = DIRECTION( '', ( -0.707106781186547, 0.000000000000000, -0.707106781186548 ) );
#333 = DIRECTION( '', ( -0.707106781186548, 0.000000000000000, 0.707106781186547 ) );
#334 = CARTESIAN_POINT( '', ( -35.2000000000000, 0.000000000000000, 0.000000000000000 ) );
#335 = DIRECTION( '', ( 1.00000000000000, 0.000000000000000, -0.000000000000000 ) );
#336 = DIRECTION( '', ( -0.000000000000000, 0.000000000000000, -1.00000000000000 ) );
#337 = CARTESIAN_POINT( '', ( -110.500000000000, 0.000000000000000, 0.000000000000000 ) );
#338 = DIRECTION( '', ( 0.707106781186548, 0.000000000000000, 0.707106781186548 ) );
#339 = DIRECTION( '', ( 0.707106781186548, -0.000000000000000, -0.707106781186548 ) );
#340 = CARTESIAN_POINT( '', ( -110.500000000000, 0.000000000000000, 0.000000000000000 ) );
#341 = DIRECTION( '', ( 0.707106781186548, 0.000000000000000, -0.707106781186548 ) );
#342 = DIRECTION( '', ( 0.707106781186548, 0.000000000000000, 0.707106781186548 ) );
#343 = CARTESIAN_POINT( '', ( -185.800000000000, 0.000000000000000, 0.000000000000000 ) );
#344 = DIRECTION( '', ( 1.00000000000000, 0.000000000000000, -0.000000000000000 ) );
#345 = DIRECTION( '', ( -0.000000000000000, 0.000000000000000, -1.00000000000000 ) );
#346 = CARTESIAN_POINT( '', ( -110.500000000000, 0.000000000000000, 74.8000000000000 ) );
#347 = DIRECTION( '', ( -0.000000000000000, 0.000000000000000, -1.00000000000000 ) );
#348 = DIRECTION( '', ( -1.00000000000000, 0.000000000000000, 0.000000000000000 ) );
#349 = CARTESIAN_POINT( '', ( -110.500000000000, 0.000000000000000, 76.5000000000000 ) );
#350 = DIRECTION( '', ( -0.000000000000000, 0.000000000000000, -1.00000000000000 ) );
#351 = DIRECTION( '', ( -1.00000000000000, 0.000000000000000, 0.000000000000000 ) );
#352 = CARTESIAN_POINT( '', ( -110.500000000000, 0.000000000000000, 110.000000000000 ) );
#353 = DIRECTION( '', ( -0.000000000000000, 0.000000000000000, -1.00000000000000 ) );
#354 = DIRECTION( '', ( -1.00000000000000, 0.000000000000000, 0.000000000000000 ) );
#355 = CARTESIAN_POINT( '', ( -110.500000000000, 0.000000000000000, 110.000000000000 ) );
#356 = DIRECTION( '', ( -0.000000000000000, 0.000000000000000, -1.00000000000000 ) );
#357 = DIRECTION( '', ( -1.00000000000000, 0.000000000000000, 0.000000000000000 ) );
#358 = CARTESIAN_POINT( '', ( 0.000000000000000, 0.000000000000000, 0.000000000000000 ) );
#359 = DIRECTION( '', ( 1.00000000000000, 0.000000000000000, -0.000000000000000 ) );
#360 = DIRECTION( '', ( -0.000000000000000, 0.000000000000000, -1.00000000000000 ) );
#361 = CARTESIAN_POINT( '', ( -33.5000000000000, 0.000000000000000, 0.000000000000000 ) );
#362 = DIRECTION( '', ( 1.00000000000000, 0.000000000000000, -0.000000000000000 ) );
#363 = DIRECTION( '', ( -0.000000000000000, 0.000000000000000, -1.00000000000000 ) );
#364 = CARTESIAN_POINT( '', ( -187.500000000000, 0.000000000000000, 0.000000000000000 ) );
#365 = DIRECTION( '', ( 1.00000000000000, 0.000000000000000, -0.000000000000000 ) );
#366 = DIRECTION( '', ( -0.000000000000000, 0.000000000000000, -1.00000000000000 ) );
#367 = CARTESIAN_POINT( '', ( -221.000000000000, 0.000000000000000, 0.000000000000000 ) );
#368 = DIRECTION( '', ( 1.00000000000000, 0.000000000000000, -0.000000000000000 ) );
#369 = DIRECTION( '', ( -0.000000000000000, 0.000000000000000, -1.00000000000000 ) );
ENDSEC;
END-ISO-10303-21;
