ISO-10303-21;
HEADER;
FILE_DESCRIPTION( ( '' ), '1' );
FILE_NAME( '//se01002/users/anro/AGRU_70712028011_PE_100-RC_schwarz_Rohr_12m_280X25_4__SDR11__ISO_S-5_05.stp', '2017-12-12T08:07:39', ( '' ), ( '' ), ' ', ' ', ' ' );
FILE_SCHEMA( ( 'automotive_design' ) );
ENDSEC;
DATA;
#1 = MECHANICAL_DESIGN_GEOMETRIC_PRESENTATION_REPRESENTATION( ' ', ( #10, #11, #12, #13, #14, #15, #16, #17, #18, #19, #20, #21, #22, #23, #24, #25, #26, #27, #28, #29, #30, #31, #32, #33, #34, #35, #36 ), #6 );
#2 = PRODUCT_DEFINITION_CONTEXT( '', #37, 'design' );
#3 = APPLICATION_PROTOCOL_DEFINITION( 'INTERNATIONAL STANDARD', 'automotive_design', 1994, #37 );
#4 = PRODUCT_CATEGORY_RELATIONSHIP( 'NONE', 'NONE', #38, #39 );
#5 = SHAPE_DEFINITION_REPRESENTATION( #40, #41 );
#6 =  ( GEOMETRIC_REPRESENTATION_CONTEXT( 3 )GLOBAL_UNCERTAINTY_ASSIGNED_CONTEXT( ( #44 ) )GLOBAL_UNIT_ASSIGNED_CONTEXT( ( #46, #47, #48 ) )REPRESENTATION_CONTEXT( 'NONE', 'WORKSPACE' ) );
#10 = STYLED_ITEM( '', ( #50 ), #51 );
#11 = STYLED_ITEM( '', ( #52 ), #53 );
#12 = STYLED_ITEM( '', ( #54 ), #55 );
#13 = STYLED_ITEM( '', ( #56 ), #57 );
#14 = STYLED_ITEM( '', ( #58 ), #59 );
#15 = STYLED_ITEM( '', ( #60 ), #61 );
#16 = STYLED_ITEM( '', ( #62 ), #63 );
#17 = STYLED_ITEM( '', ( #64 ), #65 );
#18 = STYLED_ITEM( '', ( #66 ), #67 );
#19 = STYLED_ITEM( '', ( #68 ), #69 );
#20 = STYLED_ITEM( '', ( #70 ), #71 );
#21 = STYLED_ITEM( '', ( #72 ), #73 );
#22 = STYLED_ITEM( '', ( #74 ), #75 );
#23 = STYLED_ITEM( '', ( #76 ), #77 );
#24 = STYLED_ITEM( '', ( #78 ), #79 );
#25 = STYLED_ITEM( '', ( #80 ), #81 );
#26 = STYLED_ITEM( '', ( #82 ), #83 );
#27 = STYLED_ITEM( '', ( #84 ), #85 );
#28 = STYLED_ITEM( '', ( #86 ), #87 );
#29 = STYLED_ITEM( '', ( #88 ), #89 );
#30 = STYLED_ITEM( '', ( #90 ), #91 );
#31 = STYLED_ITEM( '', ( #92 ), #93 );
#32 = STYLED_ITEM( '', ( #94 ), #95 );
#33 = STYLED_ITEM( '', ( #96 ), #97 );
#34 = STYLED_ITEM( '', ( #98 ), #99 );
#35 = STYLED_ITEM( '', ( #100 ), #101 );
#36 = STYLED_ITEM( '', ( #102 ), #103 );
#37 = APPLICATION_CONTEXT( ' ' );
#38 = PRODUCT_CATEGORY( 'part', 'NONE' );
#39 = PRODUCT_RELATED_PRODUCT_CATEGORY( 'detail', ' ', ( #104 ) );
#40 = PRODUCT_DEFINITION_SHAPE( 'NONE', 'NONE', #105 );
#41 = ADVANCED_BREP_SHAPE_REPRESENTATION( '1', ( #75, #106 ), #6 );
#44 = UNCERTAINTY_MEASURE_WITH_UNIT( LENGTH_MEASURE( 1.00000000000000E-006 ), #46, '', '' );
#46 =  ( CONVERSION_BASED_UNIT( 'MILLIMETRE', #109 )LENGTH_UNIT(  )NAMED_UNIT( #112 ) );
#47 =  ( NAMED_UNIT( #114 )PLANE_ANGLE_UNIT(  )SI_UNIT( $, .RADIAN. ) );
#48 =  ( NAMED_UNIT( #114 )SOLID_ANGLE_UNIT(  )SI_UNIT( $, .STERADIAN. ) );
#50 = PRESENTATION_STYLE_ASSIGNMENT( ( #120 ) );
#51 = ADVANCED_FACE( '', ( #121, #122 ), #123, .F. );
#52 = PRESENTATION_STYLE_ASSIGNMENT( ( #124 ) );
#53 = EDGE_CURVE( '', #79, #103, #125, .T. );
#54 = PRESENTATION_STYLE_ASSIGNMENT( ( #126 ) );
#55 = VERTEX_POINT( '', #127 );
#56 = PRESENTATION_STYLE_ASSIGNMENT( ( #128 ) );
#57 = EDGE_CURVE( '', #87, #69, #129, .T. );
#58 = PRESENTATION_STYLE_ASSIGNMENT( ( #130 ) );
#59 = VERTEX_POINT( '', #131 );
#60 = PRESENTATION_STYLE_ASSIGNMENT( ( #132 ) );
#61 = ADVANCED_FACE( '', ( #133 ), #134, .T. );
#62 = PRESENTATION_STYLE_ASSIGNMENT( ( #135 ) );
#63 = EDGE_CURVE( '', #69, #101, #136, .T. );
#64 = PRESENTATION_STYLE_ASSIGNMENT( ( #137 ) );
#65 = EDGE_CURVE( '', #103, #59, #138, .T. );
#66 = PRESENTATION_STYLE_ASSIGNMENT( ( #139 ) );
#67 = ADVANCED_FACE( '', ( #140 ), #141, .F. );
#68 = PRESENTATION_STYLE_ASSIGNMENT( ( #142 ) );
#69 = VERTEX_POINT( '', #143 );
#70 = PRESENTATION_STYLE_ASSIGNMENT( ( #144 ) );
#71 = EDGE_CURVE( '', #55, #79, #145, .T. );
#72 = PRESENTATION_STYLE_ASSIGNMENT( ( #146 ) );
#73 = EDGE_CURVE( '', #99, #87, #147, .T. );
#74 = PRESENTATION_STYLE_ASSIGNMENT( ( #148 ) );
#75 = MANIFOLD_SOLID_BREP( '1', #149 );
#76 = PRESENTATION_STYLE_ASSIGNMENT( ( #150 ) );
#77 = ADVANCED_FACE( '', ( #151 ), #152, .T. );
#78 = PRESENTATION_STYLE_ASSIGNMENT( ( #153 ) );
#79 = VERTEX_POINT( '', #154 );
#80 = PRESENTATION_STYLE_ASSIGNMENT( ( #155 ) );
#81 = EDGE_CURVE( '', #101, #99, #156, .T. );
#82 = PRESENTATION_STYLE_ASSIGNMENT( ( #157 ) );
#83 = EDGE_CURVE( '', #59, #55, #158, .T. );
#84 = PRESENTATION_STYLE_ASSIGNMENT( ( #159 ) );
#85 = EDGE_CURVE( '', #87, #99, #160, .T. );
#86 = PRESENTATION_STYLE_ASSIGNMENT( ( #161 ) );
#87 = VERTEX_POINT( '', #162 );
#88 = PRESENTATION_STYLE_ASSIGNMENT( ( #163 ) );
#89 = ADVANCED_FACE( '', ( #164, #165 ), #166, .T. );
#90 = PRESENTATION_STYLE_ASSIGNMENT( ( #167 ) );
#91 = EDGE_CURVE( '', #101, #69, #168, .T. );
#92 = PRESENTATION_STYLE_ASSIGNMENT( ( #169 ) );
#93 = EDGE_CURVE( '', #103, #79, #170, .T. );
#94 = PRESENTATION_STYLE_ASSIGNMENT( ( #171 ) );
#95 = EDGE_CURVE( '', #55, #59, #172, .T. );
#96 = PRESENTATION_STYLE_ASSIGNMENT( ( #173 ) );
#97 = ADVANCED_FACE( '', ( #174 ), #175, .F. );
#98 = PRESENTATION_STYLE_ASSIGNMENT( ( #176 ) );
#99 = VERTEX_POINT( '', #177 );
#100 = PRESENTATION_STYLE_ASSIGNMENT( ( #178 ) );
#101 = VERTEX_POINT( '', #179 );
#102 = PRESENTATION_STYLE_ASSIGNMENT( ( #180 ) );
#103 = VERTEX_POINT( '', #181 );
#104 = PRODUCT( '1', '1', 'PART-1-DESC', ( #182 ) );
#105 = PRODUCT_DEFINITION( 'NONE', 'NONE', #183, #2 );
#106 = AXIS2_PLACEMENT_3D( '', #184, #185, #186 );
#109 = LENGTH_MEASURE_WITH_UNIT( LENGTH_MEASURE( 1.00000000000000 ), #187 );
#112 = DIMENSIONAL_EXPONENTS( 1.00000000000000, 0.000000000000000, 0.000000000000000, 0.000000000000000, 0.000000000000000, 0.000000000000000, 0.000000000000000 );
#114 = DIMENSIONAL_EXPONENTS( 0.000000000000000, 0.000000000000000, 0.000000000000000, 0.000000000000000, 0.000000000000000, 0.000000000000000, 0.000000000000000 );
#120 = SURFACE_STYLE_USAGE( .BOTH., #188 );
#121 = FACE_OUTER_BOUND( '', #189, .T. );
#122 = FACE_BOUND( '', #190, .T. );
#123 = PLANE( '', #191 );
#124 = CURVE_STYLE( '', #192, POSITIVE_LENGTH_MEASURE( 1.00000000000000E-006 ), #193 );
#125 = CIRCLE( '', #194, 114.600000000000 );
#126 = POINT_STYLE( ' ', #195, POSITIVE_LENGTH_MEASURE( 1.00000000000000E-006 ), #196 );
#127 = CARTESIAN_POINT( '', ( 0.000000000000000, 0.000000000000000, -114.600000000000 ) );
#128 = CURVE_STYLE( '', #197, POSITIVE_LENGTH_MEASURE( 1.00000000000000E-006 ), #198 );
#129 = LINE( '', #199, #200 );
#130 = POINT_STYLE( ' ', #201, POSITIVE_LENGTH_MEASURE( 1.00000000000000E-006 ), #202 );
#131 = CARTESIAN_POINT( '', ( 0.000000000000000, 1.40339888148044E-014, 114.600000000000 ) );
#132 = SURFACE_STYLE_USAGE( .BOTH., #203 );
#133 = FACE_OUTER_BOUND( '', #204, .T. );
#134 = CYLINDRICAL_SURFACE( '', #205, 140.000000000000 );
#135 = CURVE_STYLE( '', #206, POSITIVE_LENGTH_MEASURE( 1.00000000000000E-006 ), #207 );
#136 = CIRCLE( '', #208, 140.000000000000 );
#137 = CURVE_STYLE( '', #209, POSITIVE_LENGTH_MEASURE( 1.00000000000000E-006 ), #210 );
#138 = LINE( '', #211, #212 );
#139 = SURFACE_STYLE_USAGE( .BOTH., #213 );
#140 = FACE_OUTER_BOUND( '', #214, .T. );
#141 = CYLINDRICAL_SURFACE( '', #215, 114.600000000000 );
#142 = POINT_STYLE( ' ', #216, POSITIVE_LENGTH_MEASURE( 1.00000000000000E-006 ), #217 );
#143 = CARTESIAN_POINT( '', ( 5000.00000000000, 0.000000000000000, -140.000000000000 ) );
#144 = CURVE_STYLE( '', #218, POSITIVE_LENGTH_MEASURE( 1.00000000000000E-006 ), #219 );
#145 = LINE( '', #220, #221 );
#146 = CURVE_STYLE( '', #222, POSITIVE_LENGTH_MEASURE( 1.00000000000000E-006 ), #223 );
#147 = CIRCLE( '', #224, 140.000000000000 );
#148 = SURFACE_STYLE_USAGE( .BOTH., #225 );
#149 = CLOSED_SHELL( '', ( #61, #97, #67, #77, #89, #51 ) );
#150 = SURFACE_STYLE_USAGE( .BOTH., #226 );
#151 = FACE_OUTER_BOUND( '', #227, .T. );
#152 = CYLINDRICAL_SURFACE( '', #228, 140.000000000000 );
#153 = POINT_STYLE( ' ', #229, POSITIVE_LENGTH_MEASURE( 1.00000000000000E-006 ), #230 );
#154 = CARTESIAN_POINT( '', ( 5000.00000000000, 0.000000000000000, -114.600000000000 ) );
#155 = CURVE_STYLE( '', #231, POSITIVE_LENGTH_MEASURE( 1.00000000000000E-006 ), #232 );
#156 = LINE( '', #233, #234 );
#157 = CURVE_STYLE( '', #235, POSITIVE_LENGTH_MEASURE( 1.00000000000000E-006 ), #236 );
#158 = CIRCLE( '', #237, 114.600000000000 );
#159 = CURVE_STYLE( '', #238, POSITIVE_LENGTH_MEASURE( 1.00000000000000E-006 ), #239 );
#160 = CIRCLE( '', #240, 140.000000000000 );
#161 = POINT_STYLE( ' ', #241, POSITIVE_LENGTH_MEASURE( 1.00000000000000E-006 ), #242 );
#162 = CARTESIAN_POINT( '', ( 0.000000000000000, 0.000000000000000, -140.000000000000 ) );
#163 = SURFACE_STYLE_USAGE( .BOTH., #243 );
#164 = FACE_OUTER_BOUND( '', #244, .T. );
#165 = FACE_BOUND( '', #245, .T. );
#166 = PLANE( '', #246 );
#167 = CURVE_STYLE( '', #247, POSITIVE_LENGTH_MEASURE( 1.00000000000000E-006 ), #248 );
#168 = CIRCLE( '', #249, 140.000000000000 );
#169 = CURVE_STYLE( '', #250, POSITIVE_LENGTH_MEASURE( 1.00000000000000E-006 ), #251 );
#170 = CIRCLE( '', #252, 114.600000000000 );
#171 = CURVE_STYLE( '', #253, POSITIVE_LENGTH_MEASURE( 1.00000000000000E-006 ), #254 );
#172 = CIRCLE( '', #255, 114.600000000000 );
#173 = SURFACE_STYLE_USAGE( .BOTH., #256 );
#174 = FACE_OUTER_BOUND( '', #257, .T. );
#175 = CYLINDRICAL_SURFACE( '', #258, 114.600000000000 );
#176 = POINT_STYLE( ' ', #259, POSITIVE_LENGTH_MEASURE( 1.00000000000000E-006 ), #260 );
#177 = CARTESIAN_POINT( '', ( 0.000000000000000, 1.71444889535133E-014, 140.000000000000 ) );
#178 = POINT_STYLE( ' ', #261, POSITIVE_LENGTH_MEASURE( 1.00000000000000E-006 ), #262 );
#179 = CARTESIAN_POINT( '', ( 5000.00000000000, 1.71444889535133E-014, 140.000000000000 ) );
#180 = POINT_STYLE( ' ', #263, POSITIVE_LENGTH_MEASURE( 1.00000000000000E-006 ), #264 );
#181 = CARTESIAN_POINT( '', ( 5000.00000000000, 1.40339888148044E-014, 114.600000000000 ) );
#182 = PRODUCT_CONTEXT( '', #37, 'mechanical' );
#183 = PRODUCT_DEFINITION_FORMATION_WITH_SPECIFIED_SOURCE( ' ', 'NONE', #104, .NOT_KNOWN. );
#184 = CARTESIAN_POINT( '', ( 0.000000000000000, 0.000000000000000, 0.000000000000000 ) );
#185 = DIRECTION( '', ( 0.000000000000000, 0.000000000000000, 1.00000000000000 ) );
#186 = DIRECTION( '', ( 1.00000000000000, 0.000000000000000, 0.000000000000000 ) );
#187 =  ( NAMED_UNIT( #112 )LENGTH_UNIT(  )SI_UNIT( .MILLI., .METRE. ) );
#188 = SURFACE_SIDE_STYLE( '', ( #266 ) );
#189 = EDGE_LOOP( '', ( #267, #268 ) );
#190 = EDGE_LOOP( '', ( #269, #270 ) );
#191 = AXIS2_PLACEMENT_3D( '', #271, #272, #273 );
#192 = DRAUGHTING_PRE_DEFINED_CURVE_FONT( 'continuous' );
#193 = COLOUR_RGB( '', 0.689999997615810, 0.689999997615810, 0.689999997615810 );
#194 = AXIS2_PLACEMENT_3D( '', #274, #275, #276 );
#195 = PRE_DEFINED_MARKER( '' );
#196 = COLOUR_RGB( '', 0.689999997615810, 0.689999997615810, 0.689999997615810 );
#197 = DRAUGHTING_PRE_DEFINED_CURVE_FONT( 'continuous' );
#198 = COLOUR_RGB( '', 0.689999997615810, 0.689999997615810, 0.689999997615810 );
#199 = CARTESIAN_POINT( '', ( 0.000000000000000, -1.71444889535133E-014, -140.000000000000 ) );
#200 = VECTOR( '', #277, 1.00000000000000 );
#201 = PRE_DEFINED_MARKER( '' );
#202 = COLOUR_RGB( '', 0.689999997615810, 0.689999997615810, 0.689999997615810 );
#203 = SURFACE_SIDE_STYLE( '', ( #278 ) );
#204 = EDGE_LOOP( '', ( #279, #280, #281, #282 ) );
#205 = AXIS2_PLACEMENT_3D( '', #283, #284, #285 );
#206 = DRAUGHTING_PRE_DEFINED_CURVE_FONT( 'continuous' );
#207 = COLOUR_RGB( '', 0.689999997615810, 0.689999997615810, 0.689999997615810 );
#208 = AXIS2_PLACEMENT_3D( '', #286, #287, #288 );
#209 = DRAUGHTING_PRE_DEFINED_CURVE_FONT( 'continuous' );
#210 = COLOUR_RGB( '', 0.689999997615810, 0.689999997615810, 0.689999997615810 );
#211 = CARTESIAN_POINT( '', ( 0.000000000000000, 1.40339888148044E-014, 114.600000000000 ) );
#212 = VECTOR( '', #289, 1.00000000000000 );
#213 = SURFACE_SIDE_STYLE( '', ( #290 ) );
#214 = EDGE_LOOP( '', ( #291, #292, #293, #294 ) );
#215 = AXIS2_PLACEMENT_3D( '', #295, #296, #297 );
#216 = PRE_DEFINED_MARKER( '' );
#217 = COLOUR_RGB( '', 0.689999997615810, 0.689999997615810, 0.689999997615810 );
#218 = DRAUGHTING_PRE_DEFINED_CURVE_FONT( 'continuous' );
#219 = COLOUR_RGB( '', 0.689999997615810, 0.689999997615810, 0.689999997615810 );
#220 = CARTESIAN_POINT( '', ( 0.000000000000000, -1.40339888148044E-014, -114.600000000000 ) );
#221 = VECTOR( '', #298, 1.00000000000000 );
#222 = DRAUGHTING_PRE_DEFINED_CURVE_FONT( 'continuous' );
#223 = COLOUR_RGB( '', 0.689999997615810, 0.689999997615810, 0.689999997615810 );
#224 = AXIS2_PLACEMENT_3D( '', #299, #300, #301 );
#225 = SURFACE_SIDE_STYLE( '', ( #302 ) );
#226 = SURFACE_SIDE_STYLE( '', ( #303 ) );
#227 = EDGE_LOOP( '', ( #304, #305, #306, #307 ) );
#228 = AXIS2_PLACEMENT_3D( '', #308, #309, #310 );
#229 = PRE_DEFINED_MARKER( '' );
#230 = COLOUR_RGB( '', 0.689999997615810, 0.689999997615810, 0.689999997615810 );
#231 = DRAUGHTING_PRE_DEFINED_CURVE_FONT( 'continuous' );
#232 = COLOUR_RGB( '', 0.689999997615810, 0.689999997615810, 0.689999997615810 );
#233 = CARTESIAN_POINT( '', ( 0.000000000000000, 1.71444889535133E-014, 140.000000000000 ) );
#234 = VECTOR( '', #311, 1.00000000000000 );
#235 = DRAUGHTING_PRE_DEFINED_CURVE_FONT( 'continuous' );
#236 = COLOUR_RGB( '', 0.689999997615810, 0.689999997615810, 0.689999997615810 );
#237 = AXIS2_PLACEMENT_3D( '', #312, #313, #314 );
#238 = DRAUGHTING_PRE_DEFINED_CURVE_FONT( 'continuous' );
#239 = COLOUR_RGB( '', 0.689999997615810, 0.689999997615810, 0.689999997615810 );
#240 = AXIS2_PLACEMENT_3D( '', #315, #316, #317 );
#241 = PRE_DEFINED_MARKER( '' );
#242 = COLOUR_RGB( '', 0.689999997615810, 0.689999997615810, 0.689999997615810 );
#243 = SURFACE_SIDE_STYLE( '', ( #318 ) );
#244 = EDGE_LOOP( '', ( #319, #320 ) );
#245 = EDGE_LOOP( '', ( #321, #322 ) );
#246 = AXIS2_PLACEMENT_3D( '', #323, #324, #325 );
#247 = DRAUGHTING_PRE_DEFINED_CURVE_FONT( 'continuous' );
#248 = COLOUR_RGB( '', 0.689999997615810, 0.689999997615810, 0.689999997615810 );
#249 = AXIS2_PLACEMENT_3D( '', #326, #327, #328 );
#250 = DRAUGHTING_PRE_DEFINED_CURVE_FONT( 'continuous' );
#251 = COLOUR_RGB( '', 0.689999997615810, 0.689999997615810, 0.689999997615810 );
#252 = AXIS2_PLACEMENT_3D( '', #329, #330, #331 );
#253 = DRAUGHTING_PRE_DEFINED_CURVE_FONT( 'continuous' );
#254 = COLOUR_RGB( '', 0.689999997615810, 0.689999997615810, 0.689999997615810 );
#255 = AXIS2_PLACEMENT_3D( '', #332, #333, #334 );
#256 = SURFACE_SIDE_STYLE( '', ( #335 ) );
#257 = EDGE_LOOP( '', ( #336, #337, #338, #339 ) );
#258 = AXIS2_PLACEMENT_3D( '', #340, #341, #342 );
#259 = PRE_DEFINED_MARKER( '' );
#260 = COLOUR_RGB( '', 0.689999997615810, 0.689999997615810, 0.689999997615810 );
#261 = PRE_DEFINED_MARKER( '' );
#262 = COLOUR_RGB( '', 0.689999997615810, 0.689999997615810, 0.689999997615810 );
#263 = PRE_DEFINED_MARKER( '' );
#264 = COLOUR_RGB( '', 0.689999997615810, 0.689999997615810, 0.689999997615810 );
#266 = SURFACE_STYLE_FILL_AREA( #343 );
#267 = ORIENTED_EDGE( '', *, *, #85, .F. );
#268 = ORIENTED_EDGE( '', *, *, #73, .F. );
#269 = ORIENTED_EDGE( '', *, *, #95, .T. );
#270 = ORIENTED_EDGE( '', *, *, #83, .T. );
#271 = CARTESIAN_POINT( '', ( 0.000000000000000, 0.000000000000000, 0.000000000000000 ) );
#272 = DIRECTION( '', ( 1.00000000000000, 0.000000000000000, 0.000000000000000 ) );
#273 = DIRECTION( '', ( 0.000000000000000, 0.000000000000000, -1.00000000000000 ) );
#274 = CARTESIAN_POINT( '', ( 5000.00000000000, 0.000000000000000, 0.000000000000000 ) );
#275 = DIRECTION( '', ( 1.00000000000000, 0.000000000000000, 0.000000000000000 ) );
#276 = DIRECTION( '', ( 0.000000000000000, 0.000000000000000, -1.00000000000000 ) );
#277 = DIRECTION( '', ( 1.00000000000000, 0.000000000000000, 0.000000000000000 ) );
#278 = SURFACE_STYLE_FILL_AREA( #344 );
#279 = ORIENTED_EDGE( '', *, *, #57, .F. );
#280 = ORIENTED_EDGE( '', *, *, #85, .T. );
#281 = ORIENTED_EDGE( '', *, *, #81, .F. );
#282 = ORIENTED_EDGE( '', *, *, #91, .T. );
#283 = CARTESIAN_POINT( '', ( 0.000000000000000, 0.000000000000000, 0.000000000000000 ) );
#284 = DIRECTION( '', ( -1.00000000000000, -0.000000000000000, -0.000000000000000 ) );
#285 = DIRECTION( '', ( 0.000000000000000, 0.000000000000000, -1.00000000000000 ) );
#286 = CARTESIAN_POINT( '', ( 5000.00000000000, 0.000000000000000, 0.000000000000000 ) );
#287 = DIRECTION( '', ( -1.00000000000000, 0.000000000000000, 0.000000000000000 ) );
#288 = DIRECTION( '', ( 0.000000000000000, 0.000000000000000, -1.00000000000000 ) );
#289 = DIRECTION( '', ( -1.00000000000000, 0.000000000000000, 0.000000000000000 ) );
#290 = SURFACE_STYLE_FILL_AREA( #345 );
#291 = ORIENTED_EDGE( '', *, *, #71, .T. );
#292 = ORIENTED_EDGE( '', *, *, #53, .T. );
#293 = ORIENTED_EDGE( '', *, *, #65, .T. );
#294 = ORIENTED_EDGE( '', *, *, #95, .F. );
#295 = CARTESIAN_POINT( '', ( 0.000000000000000, 0.000000000000000, 0.000000000000000 ) );
#296 = DIRECTION( '', ( -1.00000000000000, -0.000000000000000, -0.000000000000000 ) );
#297 = DIRECTION( '', ( 0.000000000000000, 0.000000000000000, -1.00000000000000 ) );
#298 = DIRECTION( '', ( 1.00000000000000, 0.000000000000000, 0.000000000000000 ) );
#299 = CARTESIAN_POINT( '', ( 0.000000000000000, 0.000000000000000, 0.000000000000000 ) );
#300 = DIRECTION( '', ( 1.00000000000000, -0.000000000000000, 0.000000000000000 ) );
#301 = DIRECTION( '', ( 0.000000000000000, 0.000000000000000, -1.00000000000000 ) );
#302 = SURFACE_STYLE_FILL_AREA( #346 );
#303 = SURFACE_STYLE_FILL_AREA( #347 );
#304 = ORIENTED_EDGE( '', *, *, #57, .T. );
#305 = ORIENTED_EDGE( '', *, *, #63, .T. );
#306 = ORIENTED_EDGE( '', *, *, #81, .T. );
#307 = ORIENTED_EDGE( '', *, *, #73, .T. );
#308 = CARTESIAN_POINT( '', ( 0.000000000000000, 0.000000000000000, 0.000000000000000 ) );
#309 = DIRECTION( '', ( -1.00000000000000, -0.000000000000000, -0.000000000000000 ) );
#310 = DIRECTION( '', ( 0.000000000000000, 0.000000000000000, -1.00000000000000 ) );
#311 = DIRECTION( '', ( -1.00000000000000, -0.000000000000000, -0.000000000000000 ) );
#312 = CARTESIAN_POINT( '', ( 0.000000000000000, 0.000000000000000, 0.000000000000000 ) );
#313 = DIRECTION( '', ( 1.00000000000000, -0.000000000000000, 0.000000000000000 ) );
#314 = DIRECTION( '', ( 0.000000000000000, 0.000000000000000, -1.00000000000000 ) );
#315 = CARTESIAN_POINT( '', ( 0.000000000000000, 0.000000000000000, 0.000000000000000 ) );
#316 = DIRECTION( '', ( 1.00000000000000, -0.000000000000000, 0.000000000000000 ) );
#317 = DIRECTION( '', ( 0.000000000000000, 0.000000000000000, -1.00000000000000 ) );
#318 = SURFACE_STYLE_FILL_AREA( #348 );
#319 = ORIENTED_EDGE( '', *, *, #63, .F. );
#320 = ORIENTED_EDGE( '', *, *, #91, .F. );
#321 = ORIENTED_EDGE( '', *, *, #53, .F. );
#322 = ORIENTED_EDGE( '', *, *, #93, .F. );
#323 = CARTESIAN_POINT( '', ( 5000.00000000000, 0.000000000000000, 0.000000000000000 ) );
#324 = DIRECTION( '', ( 1.00000000000000, 0.000000000000000, 0.000000000000000 ) );
#325 = DIRECTION( '', ( 0.000000000000000, 0.000000000000000, -1.00000000000000 ) );
#326 = CARTESIAN_POINT( '', ( 5000.00000000000, 0.000000000000000, 0.000000000000000 ) );
#327 = DIRECTION( '', ( -1.00000000000000, 0.000000000000000, 0.000000000000000 ) );
#328 = DIRECTION( '', ( 0.000000000000000, 0.000000000000000, -1.00000000000000 ) );
#329 = CARTESIAN_POINT( '', ( 5000.00000000000, 0.000000000000000, 0.000000000000000 ) );
#330 = DIRECTION( '', ( 1.00000000000000, 0.000000000000000, 0.000000000000000 ) );
#331 = DIRECTION( '', ( 0.000000000000000, 0.000000000000000, -1.00000000000000 ) );
#332 = CARTESIAN_POINT( '', ( 0.000000000000000, 0.000000000000000, 0.000000000000000 ) );
#333 = DIRECTION( '', ( 1.00000000000000, -0.000000000000000, 0.000000000000000 ) );
#334 = DIRECTION( '', ( 0.000000000000000, 0.000000000000000, -1.00000000000000 ) );
#335 = SURFACE_STYLE_FILL_AREA( #349 );
#336 = ORIENTED_EDGE( '', *, *, #71, .F. );
#337 = ORIENTED_EDGE( '', *, *, #83, .F. );
#338 = ORIENTED_EDGE( '', *, *, #65, .F. );
#339 = ORIENTED_EDGE( '', *, *, #93, .T. );
#340 = CARTESIAN_POINT( '', ( 0.000000000000000, 0.000000000000000, 0.000000000000000 ) );
#341 = DIRECTION( '', ( -1.00000000000000, -0.000000000000000, -0.000000000000000 ) );
#342 = DIRECTION( '', ( 0.000000000000000, 0.000000000000000, -1.00000000000000 ) );
#343 = FILL_AREA_STYLE( '', ( #350 ) );
#344 = FILL_AREA_STYLE( '', ( #351 ) );
#345 = FILL_AREA_STYLE( '', ( #352 ) );
#346 = FILL_AREA_STYLE( '', ( #353 ) );
#347 = FILL_AREA_STYLE( '', ( #354 ) );
#348 = FILL_AREA_STYLE( '', ( #355 ) );
#349 = FILL_AREA_STYLE( '', ( #356 ) );
#350 = FILL_AREA_STYLE_COLOUR( '', #357 );
#351 = FILL_AREA_STYLE_COLOUR( '', #358 );
#352 = FILL_AREA_STYLE_COLOUR( '', #359 );
#353 = FILL_AREA_STYLE_COLOUR( '', #360 );
#354 = FILL_AREA_STYLE_COLOUR( '', #361 );
#355 = FILL_AREA_STYLE_COLOUR( '', #362 );
#356 = FILL_AREA_STYLE_COLOUR( '', #363 );
#357 = COLOUR_RGB( '', 0.689999997615810, 0.689999997615810, 0.689999997615810 );
#358 = COLOUR_RGB( '', 0.689999997615810, 0.689999997615810, 0.689999997615810 );
#359 = COLOUR_RGB( '', 0.689999997615810, 0.689999997615810, 0.689999997615810 );
#360 = COLOUR_RGB( '', 0.689999997615810, 0.689999997615810, 0.689999997615810 );
#361 = COLOUR_RGB( '', 0.689999997615810, 0.689999997615810, 0.689999997615810 );
#362 = COLOUR_RGB( '', 0.689999997615810, 0.689999997615810, 0.689999997615810 );
#363 = COLOUR_RGB( '', 0.689999997615810, 0.689999997615810, 0.689999997615810 );
ENDSEC;
END-ISO-10303-21;
