ISO-10303-21;
HEADER;
FILE_DESCRIPTION( ( '' ), '1' );
FILE_NAME( '//se01002/users/anro/AGRU_70712016017_PE_100-RC_schwarz_Rohr_12m_160X9_5__SDR17__ISO_S-8_05.stp', '2017-12-12T08:11:08', ( '' ), ( '' ), ' ', ' ', ' ' );
FILE_SCHEMA( ( 'automotive_design' ) );
ENDSEC;
DATA;
#1 = MECHANICAL_DESIGN_GEOMETRIC_PRESENTATION_REPRESENTATION( ' ', ( #10, #11, #12, #13, #14, #15, #16, #17, #18, #19, #20, #21, #22, #23, #24, #25, #26, #27, #28, #29, #30, #31, #32, #33, #34, #35, #36 ), #6 );
#2 = PRODUCT_DEFINITION_CONTEXT( '', #37, 'design' );
#3 = APPLICATION_PROTOCOL_DEFINITION( 'INTERNATIONAL STANDARD', 'automotive_design', 1994, #37 );
#4 = PRODUCT_CATEGORY_RELATIONSHIP( 'NONE', 'NONE', #38, #39 );
#5 = SHAPE_DEFINITION_REPRESENTATION( #40, #41 );
#6 =  ( GEOMETRIC_REPRESENTATION_CONTEXT( 3 )GLOBAL_UNCERTAINTY_ASSIGNED_CONTEXT( ( #44 ) )GLOBAL_UNIT_ASSIGNED_CONTEXT( ( #46, #47, #48 ) )REPRESENTATION_CONTEXT( 'NONE', 'WORKSPACE' ) );
#10 = STYLED_ITEM( '', ( #50 ), #51 );
#11 = STYLED_ITEM( '', ( #52 ), #53 );
#12 = STYLED_ITEM( '', ( #54 ), #55 );
#13 = STYLED_ITEM( '', ( #56 ), #57 );
#14 = STYLED_ITEM( '', ( #58 ), #59 );
#15 = STYLED_ITEM( '', ( #60 ), #61 );
#16 = STYLED_ITEM( '', ( #62 ), #63 );
#17 = STYLED_ITEM( '', ( #64 ), #65 );
#18 = STYLED_ITEM( '', ( #66 ), #67 );
#19 = STYLED_ITEM( '', ( #68 ), #69 );
#20 = STYLED_ITEM( '', ( #70 ), #71 );
#21 = STYLED_ITEM( '', ( #72 ), #73 );
#22 = STYLED_ITEM( '', ( #74 ), #75 );
#23 = STYLED_ITEM( '', ( #76 ), #77 );
#24 = STYLED_ITEM( '', ( #78 ), #79 );
#25 = STYLED_ITEM( '', ( #80 ), #81 );
#26 = STYLED_ITEM( '', ( #82 ), #83 );
#27 = STYLED_ITEM( '', ( #84 ), #85 );
#28 = STYLED_ITEM( '', ( #86 ), #87 );
#29 = STYLED_ITEM( '', ( #88 ), #89 );
#30 = STYLED_ITEM( '', ( #90 ), #91 );
#31 = STYLED_ITEM( '', ( #92 ), #93 );
#32 = STYLED_ITEM( '', ( #94 ), #95 );
#33 = STYLED_ITEM( '', ( #96 ), #97 );
#34 = STYLED_ITEM( '', ( #98 ), #99 );
#35 = STYLED_ITEM( '', ( #100 ), #101 );
#36 = STYLED_ITEM( '', ( #102 ), #103 );
#37 = APPLICATION_CONTEXT( ' ' );
#38 = PRODUCT_CATEGORY( 'part', 'NONE' );
#39 = PRODUCT_RELATED_PRODUCT_CATEGORY( 'detail', ' ', ( #104 ) );
#40 = PRODUCT_DEFINITION_SHAPE( 'NONE', 'NONE', #105 );
#41 = ADVANCED_BREP_SHAPE_REPRESENTATION( '1', ( #79, #106 ), #6 );
#44 = UNCERTAINTY_MEASURE_WITH_UNIT( LENGTH_MEASURE( 1.00000000000000E-006 ), #46, '', '' );
#46 =  ( CONVERSION_BASED_UNIT( 'MILLIMETRE', #109 )LENGTH_UNIT(  )NAMED_UNIT( #112 ) );
#47 =  ( NAMED_UNIT( #114 )PLANE_ANGLE_UNIT(  )SI_UNIT( $, .RADIAN. ) );
#48 =  ( NAMED_UNIT( #114 )SOLID_ANGLE_UNIT(  )SI_UNIT( $, .STERADIAN. ) );
#50 = PRESENTATION_STYLE_ASSIGNMENT( ( #120 ) );
#51 = ADVANCED_FACE( '', ( #121 ), #122, .T. );
#52 = PRESENTATION_STYLE_ASSIGNMENT( ( #123 ) );
#53 = VERTEX_POINT( '', #124 );
#54 = PRESENTATION_STYLE_ASSIGNMENT( ( #125 ) );
#55 = VERTEX_POINT( '', #126 );
#56 = PRESENTATION_STYLE_ASSIGNMENT( ( #127 ) );
#57 = ADVANCED_FACE( '', ( #128, #129 ), #130, .T. );
#58 = PRESENTATION_STYLE_ASSIGNMENT( ( #131 ) );
#59 = VERTEX_POINT( '', #132 );
#60 = PRESENTATION_STYLE_ASSIGNMENT( ( #133 ) );
#61 = VERTEX_POINT( '', #134 );
#62 = PRESENTATION_STYLE_ASSIGNMENT( ( #135 ) );
#63 = EDGE_CURVE( '', #61, #55, #136, .T. );
#64 = PRESENTATION_STYLE_ASSIGNMENT( ( #137 ) );
#65 = EDGE_CURVE( '', #91, #85, #138, .T. );
#66 = PRESENTATION_STYLE_ASSIGNMENT( ( #139 ) );
#67 = EDGE_CURVE( '', #53, #59, #140, .T. );
#68 = PRESENTATION_STYLE_ASSIGNMENT( ( #141 ) );
#69 = ADVANCED_FACE( '', ( #142 ), #143, .T. );
#70 = PRESENTATION_STYLE_ASSIGNMENT( ( #144 ) );
#71 = EDGE_CURVE( '', #95, #73, #145, .T. );
#72 = PRESENTATION_STYLE_ASSIGNMENT( ( #146 ) );
#73 = VERTEX_POINT( '', #147 );
#74 = PRESENTATION_STYLE_ASSIGNMENT( ( #148 ) );
#75 = EDGE_CURVE( '', #85, #91, #149, .T. );
#76 = PRESENTATION_STYLE_ASSIGNMENT( ( #150 ) );
#77 = EDGE_CURVE( '', #61, #59, #151, .T. );
#78 = PRESENTATION_STYLE_ASSIGNMENT( ( #152 ) );
#79 = MANIFOLD_SOLID_BREP( '1', #153 );
#80 = PRESENTATION_STYLE_ASSIGNMENT( ( #154 ) );
#81 = ADVANCED_FACE( '', ( #155 ), #156, .F. );
#82 = PRESENTATION_STYLE_ASSIGNMENT( ( #157 ) );
#83 = ADVANCED_FACE( '', ( #158, #159 ), #160, .F. );
#84 = PRESENTATION_STYLE_ASSIGNMENT( ( #161 ) );
#85 = VERTEX_POINT( '', #162 );
#86 = PRESENTATION_STYLE_ASSIGNMENT( ( #163 ) );
#87 = EDGE_CURVE( '', #55, #61, #164, .T. );
#88 = PRESENTATION_STYLE_ASSIGNMENT( ( #165 ) );
#89 = ADVANCED_FACE( '', ( #166 ), #167, .F. );
#90 = PRESENTATION_STYLE_ASSIGNMENT( ( #168 ) );
#91 = VERTEX_POINT( '', #169 );
#92 = PRESENTATION_STYLE_ASSIGNMENT( ( #170 ) );
#93 = EDGE_CURVE( '', #53, #55, #171, .T. );
#94 = PRESENTATION_STYLE_ASSIGNMENT( ( #172 ) );
#95 = VERTEX_POINT( '', #173 );
#96 = PRESENTATION_STYLE_ASSIGNMENT( ( #174 ) );
#97 = EDGE_CURVE( '', #85, #95, #175, .T. );
#98 = PRESENTATION_STYLE_ASSIGNMENT( ( #176 ) );
#99 = EDGE_CURVE( '', #59, #53, #177, .T. );
#100 = PRESENTATION_STYLE_ASSIGNMENT( ( #178 ) );
#101 = EDGE_CURVE( '', #73, #91, #179, .T. );
#102 = PRESENTATION_STYLE_ASSIGNMENT( ( #180 ) );
#103 = EDGE_CURVE( '', #73, #95, #181, .T. );
#104 = PRODUCT( '1', '1', 'PART-1-DESC', ( #182 ) );
#105 = PRODUCT_DEFINITION( 'NONE', 'NONE', #183, #2 );
#106 = AXIS2_PLACEMENT_3D( '', #184, #185, #186 );
#109 = LENGTH_MEASURE_WITH_UNIT( LENGTH_MEASURE( 1.00000000000000 ), #187 );
#112 = DIMENSIONAL_EXPONENTS( 1.00000000000000, 0.000000000000000, 0.000000000000000, 0.000000000000000, 0.000000000000000, 0.000000000000000, 0.000000000000000 );
#114 = DIMENSIONAL_EXPONENTS( 0.000000000000000, 0.000000000000000, 0.000000000000000, 0.000000000000000, 0.000000000000000, 0.000000000000000, 0.000000000000000 );
#120 = SURFACE_STYLE_USAGE( .BOTH., #188 );
#121 = FACE_OUTER_BOUND( '', #189, .T. );
#122 = CYLINDRICAL_SURFACE( '', #190, 80.0000000000000 );
#123 = POINT_STYLE( ' ', #191, POSITIVE_LENGTH_MEASURE( 1.00000000000000E-006 ), #192 );
#124 = CARTESIAN_POINT( '', ( 5000.00000000000, 8.63347479444776E-015, 70.5000000000000 ) );
#125 = POINT_STYLE( ' ', #193, POSITIVE_LENGTH_MEASURE( 1.00000000000000E-006 ), #194 );
#126 = CARTESIAN_POINT( '', ( 0.000000000000000, 8.63347479444776E-015, 70.5000000000000 ) );
#127 = SURFACE_STYLE_USAGE( .BOTH., #195 );
#128 = FACE_OUTER_BOUND( '', #196, .T. );
#129 = FACE_BOUND( '', #197, .T. );
#130 = PLANE( '', #198 );
#131 = POINT_STYLE( ' ', #199, POSITIVE_LENGTH_MEASURE( 1.00000000000000E-006 ), #200 );
#132 = CARTESIAN_POINT( '', ( 5000.00000000000, 0.000000000000000, -70.5000000000000 ) );
#133 = POINT_STYLE( ' ', #201, POSITIVE_LENGTH_MEASURE( 1.00000000000000E-006 ), #202 );
#134 = CARTESIAN_POINT( '', ( 0.000000000000000, 0.000000000000000, -70.5000000000000 ) );
#135 = CURVE_STYLE( '', #203, POSITIVE_LENGTH_MEASURE( 1.00000000000000E-006 ), #204 );
#136 = CIRCLE( '', #205, 70.5000000000000 );
#137 = CURVE_STYLE( '', #206, POSITIVE_LENGTH_MEASURE( 1.00000000000000E-006 ), #207 );
#138 = CIRCLE( '', #208, 80.0000000000000 );
#139 = CURVE_STYLE( '', #209, POSITIVE_LENGTH_MEASURE( 1.00000000000000E-006 ), #210 );
#140 = CIRCLE( '', #211, 70.5000000000000 );
#141 = SURFACE_STYLE_USAGE( .BOTH., #212 );
#142 = FACE_OUTER_BOUND( '', #213, .T. );
#143 = CYLINDRICAL_SURFACE( '', #214, 80.0000000000000 );
#144 = CURVE_STYLE( '', #215, POSITIVE_LENGTH_MEASURE( 1.00000000000000E-006 ), #216 );
#145 = CIRCLE( '', #217, 80.0000000000000 );
#146 = POINT_STYLE( ' ', #218, POSITIVE_LENGTH_MEASURE( 1.00000000000000E-006 ), #219 );
#147 = CARTESIAN_POINT( '', ( 5000.00000000000, 9.79685083057902E-015, 80.0000000000000 ) );
#148 = CURVE_STYLE( '', #220, POSITIVE_LENGTH_MEASURE( 1.00000000000000E-006 ), #221 );
#149 = CIRCLE( '', #222, 80.0000000000000 );
#150 = CURVE_STYLE( '', #223, POSITIVE_LENGTH_MEASURE( 1.00000000000000E-006 ), #224 );
#151 = LINE( '', #225, #226 );
#152 = SURFACE_STYLE_USAGE( .BOTH., #227 );
#153 = CLOSED_SHELL( '', ( #69, #89, #81, #51, #57, #83 ) );
#154 = SURFACE_STYLE_USAGE( .BOTH., #228 );
#155 = FACE_OUTER_BOUND( '', #229, .T. );
#156 = CYLINDRICAL_SURFACE( '', #230, 70.5000000000000 );
#157 = SURFACE_STYLE_USAGE( .BOTH., #231 );
#158 = FACE_OUTER_BOUND( '', #232, .T. );
#159 = FACE_BOUND( '', #233, .T. );
#160 = PLANE( '', #234 );
#161 = POINT_STYLE( ' ', #235, POSITIVE_LENGTH_MEASURE( 1.00000000000000E-006 ), #236 );
#162 = CARTESIAN_POINT( '', ( 0.000000000000000, 0.000000000000000, -80.0000000000000 ) );
#163 = CURVE_STYLE( '', #237, POSITIVE_LENGTH_MEASURE( 1.00000000000000E-006 ), #238 );
#164 = CIRCLE( '', #239, 70.5000000000000 );
#165 = SURFACE_STYLE_USAGE( .BOTH., #240 );
#166 = FACE_OUTER_BOUND( '', #241, .T. );
#167 = CYLINDRICAL_SURFACE( '', #242, 70.5000000000000 );
#168 = POINT_STYLE( ' ', #243, POSITIVE_LENGTH_MEASURE( 1.00000000000000E-006 ), #244 );
#169 = CARTESIAN_POINT( '', ( 0.000000000000000, 9.79685083057902E-015, 80.0000000000000 ) );
#170 = CURVE_STYLE( '', #245, POSITIVE_LENGTH_MEASURE( 1.00000000000000E-006 ), #246 );
#171 = LINE( '', #247, #248 );
#172 = POINT_STYLE( ' ', #249, POSITIVE_LENGTH_MEASURE( 1.00000000000000E-006 ), #250 );
#173 = CARTESIAN_POINT( '', ( 5000.00000000000, 0.000000000000000, -80.0000000000000 ) );
#174 = CURVE_STYLE( '', #251, POSITIVE_LENGTH_MEASURE( 1.00000000000000E-006 ), #252 );
#175 = LINE( '', #253, #254 );
#176 = CURVE_STYLE( '', #255, POSITIVE_LENGTH_MEASURE( 1.00000000000000E-006 ), #256 );
#177 = CIRCLE( '', #257, 70.5000000000000 );
#178 = CURVE_STYLE( '', #258, POSITIVE_LENGTH_MEASURE( 1.00000000000000E-006 ), #259 );
#179 = LINE( '', #260, #261 );
#180 = CURVE_STYLE( '', #262, POSITIVE_LENGTH_MEASURE( 1.00000000000000E-006 ), #263 );
#181 = CIRCLE( '', #264, 80.0000000000000 );
#182 = PRODUCT_CONTEXT( '', #37, 'mechanical' );
#183 = PRODUCT_DEFINITION_FORMATION_WITH_SPECIFIED_SOURCE( ' ', 'NONE', #104, .NOT_KNOWN. );
#184 = CARTESIAN_POINT( '', ( 0.000000000000000, 0.000000000000000, 0.000000000000000 ) );
#185 = DIRECTION( '', ( 0.000000000000000, 0.000000000000000, 1.00000000000000 ) );
#186 = DIRECTION( '', ( 1.00000000000000, 0.000000000000000, 0.000000000000000 ) );
#187 =  ( NAMED_UNIT( #112 )LENGTH_UNIT(  )SI_UNIT( .MILLI., .METRE. ) );
#188 = SURFACE_SIDE_STYLE( '', ( #266 ) );
#189 = EDGE_LOOP( '', ( #267, #268, #269, #270 ) );
#190 = AXIS2_PLACEMENT_3D( '', #271, #272, #273 );
#191 = PRE_DEFINED_MARKER( '' );
#192 = COLOUR_RGB( '', 0.689999997615810, 0.689999997615810, 0.689999997615810 );
#193 = PRE_DEFINED_MARKER( '' );
#194 = COLOUR_RGB( '', 0.689999997615810, 0.689999997615810, 0.689999997615810 );
#195 = SURFACE_SIDE_STYLE( '', ( #274 ) );
#196 = EDGE_LOOP( '', ( #275, #276 ) );
#197 = EDGE_LOOP( '', ( #277, #278 ) );
#198 = AXIS2_PLACEMENT_3D( '', #279, #280, #281 );
#199 = PRE_DEFINED_MARKER( '' );
#200 = COLOUR_RGB( '', 0.689999997615810, 0.689999997615810, 0.689999997615810 );
#201 = PRE_DEFINED_MARKER( '' );
#202 = COLOUR_RGB( '', 0.689999997615810, 0.689999997615810, 0.689999997615810 );
#203 = DRAUGHTING_PRE_DEFINED_CURVE_FONT( 'continuous' );
#204 = COLOUR_RGB( '', 0.689999997615810, 0.689999997615810, 0.689999997615810 );
#205 = AXIS2_PLACEMENT_3D( '', #282, #283, #284 );
#206 = DRAUGHTING_PRE_DEFINED_CURVE_FONT( 'continuous' );
#207 = COLOUR_RGB( '', 0.689999997615810, 0.689999997615810, 0.689999997615810 );
#208 = AXIS2_PLACEMENT_3D( '', #285, #286, #287 );
#209 = DRAUGHTING_PRE_DEFINED_CURVE_FONT( 'continuous' );
#210 = COLOUR_RGB( '', 0.689999997615810, 0.689999997615810, 0.689999997615810 );
#211 = AXIS2_PLACEMENT_3D( '', #288, #289, #290 );
#212 = SURFACE_SIDE_STYLE( '', ( #291 ) );
#213 = EDGE_LOOP( '', ( #292, #293, #294, #295 ) );
#214 = AXIS2_PLACEMENT_3D( '', #296, #297, #298 );
#215 = DRAUGHTING_PRE_DEFINED_CURVE_FONT( 'continuous' );
#216 = COLOUR_RGB( '', 0.689999997615810, 0.689999997615810, 0.689999997615810 );
#217 = AXIS2_PLACEMENT_3D( '', #299, #300, #301 );
#218 = PRE_DEFINED_MARKER( '' );
#219 = COLOUR_RGB( '', 0.689999997615810, 0.689999997615810, 0.689999997615810 );
#220 = DRAUGHTING_PRE_DEFINED_CURVE_FONT( 'continuous' );
#221 = COLOUR_RGB( '', 0.689999997615810, 0.689999997615810, 0.689999997615810 );
#222 = AXIS2_PLACEMENT_3D( '', #302, #303, #304 );
#223 = DRAUGHTING_PRE_DEFINED_CURVE_FONT( 'continuous' );
#224 = COLOUR_RGB( '', 0.689999997615810, 0.689999997615810, 0.689999997615810 );
#225 = CARTESIAN_POINT( '', ( 0.000000000000000, -8.63347479444776E-015, -70.5000000000000 ) );
#226 = VECTOR( '', #305, 1.00000000000000 );
#227 = SURFACE_SIDE_STYLE( '', ( #306 ) );
#228 = SURFACE_SIDE_STYLE( '', ( #307 ) );
#229 = EDGE_LOOP( '', ( #308, #309, #310, #311 ) );
#230 = AXIS2_PLACEMENT_3D( '', #312, #313, #314 );
#231 = SURFACE_SIDE_STYLE( '', ( #315 ) );
#232 = EDGE_LOOP( '', ( #316, #317 ) );
#233 = EDGE_LOOP( '', ( #318, #319 ) );
#234 = AXIS2_PLACEMENT_3D( '', #320, #321, #322 );
#235 = PRE_DEFINED_MARKER( '' );
#236 = COLOUR_RGB( '', 0.689999997615810, 0.689999997615810, 0.689999997615810 );
#237 = DRAUGHTING_PRE_DEFINED_CURVE_FONT( 'continuous' );
#238 = COLOUR_RGB( '', 0.689999997615810, 0.689999997615810, 0.689999997615810 );
#239 = AXIS2_PLACEMENT_3D( '', #323, #324, #325 );
#240 = SURFACE_SIDE_STYLE( '', ( #326 ) );
#241 = EDGE_LOOP( '', ( #327, #328, #329, #330 ) );
#242 = AXIS2_PLACEMENT_3D( '', #331, #332, #333 );
#243 = PRE_DEFINED_MARKER( '' );
#244 = COLOUR_RGB( '', 0.689999997615810, 0.689999997615810, 0.689999997615810 );
#245 = DRAUGHTING_PRE_DEFINED_CURVE_FONT( 'continuous' );
#246 = COLOUR_RGB( '', 0.689999997615810, 0.689999997615810, 0.689999997615810 );
#247 = CARTESIAN_POINT( '', ( 0.000000000000000, 8.63347479444776E-015, 70.5000000000000 ) );
#248 = VECTOR( '', #334, 1.00000000000000 );
#249 = PRE_DEFINED_MARKER( '' );
#250 = COLOUR_RGB( '', 0.689999997615810, 0.689999997615810, 0.689999997615810 );
#251 = DRAUGHTING_PRE_DEFINED_CURVE_FONT( 'continuous' );
#252 = COLOUR_RGB( '', 0.689999997615810, 0.689999997615810, 0.689999997615810 );
#253 = CARTESIAN_POINT( '', ( 0.000000000000000, -9.79685083057902E-015, -80.0000000000000 ) );
#254 = VECTOR( '', #335, 1.00000000000000 );
#255 = DRAUGHTING_PRE_DEFINED_CURVE_FONT( 'continuous' );
#256 = COLOUR_RGB( '', 0.689999997615810, 0.689999997615810, 0.689999997615810 );
#257 = AXIS2_PLACEMENT_3D( '', #336, #337, #338 );
#258 = DRAUGHTING_PRE_DEFINED_CURVE_FONT( 'continuous' );
#259 = COLOUR_RGB( '', 0.689999997615810, 0.689999997615810, 0.689999997615810 );
#260 = CARTESIAN_POINT( '', ( 0.000000000000000, 9.79685083057902E-015, 80.0000000000000 ) );
#261 = VECTOR( '', #339, 1.00000000000000 );
#262 = DRAUGHTING_PRE_DEFINED_CURVE_FONT( 'continuous' );
#263 = COLOUR_RGB( '', 0.689999997615810, 0.689999997615810, 0.689999997615810 );
#264 = AXIS2_PLACEMENT_3D( '', #340, #341, #342 );
#266 = SURFACE_STYLE_FILL_AREA( #343 );
#267 = ORIENTED_EDGE( '', *, *, #97, .T. );
#268 = ORIENTED_EDGE( '', *, *, #71, .T. );
#269 = ORIENTED_EDGE( '', *, *, #101, .T. );
#270 = ORIENTED_EDGE( '', *, *, #65, .T. );
#271 = CARTESIAN_POINT( '', ( 0.000000000000000, 0.000000000000000, 0.000000000000000 ) );
#272 = DIRECTION( '', ( -1.00000000000000, -0.000000000000000, -0.000000000000000 ) );
#273 = DIRECTION( '', ( 0.000000000000000, 0.000000000000000, -1.00000000000000 ) );
#274 = SURFACE_STYLE_FILL_AREA( #344 );
#275 = ORIENTED_EDGE( '', *, *, #71, .F. );
#276 = ORIENTED_EDGE( '', *, *, #103, .F. );
#277 = ORIENTED_EDGE( '', *, *, #99, .F. );
#278 = ORIENTED_EDGE( '', *, *, #67, .F. );
#279 = CARTESIAN_POINT( '', ( 5000.00000000000, 0.000000000000000, 0.000000000000000 ) );
#280 = DIRECTION( '', ( 1.00000000000000, 0.000000000000000, 0.000000000000000 ) );
#281 = DIRECTION( '', ( 0.000000000000000, 0.000000000000000, -1.00000000000000 ) );
#282 = CARTESIAN_POINT( '', ( 0.000000000000000, 0.000000000000000, 0.000000000000000 ) );
#283 = DIRECTION( '', ( 1.00000000000000, -0.000000000000000, 0.000000000000000 ) );
#284 = DIRECTION( '', ( 0.000000000000000, 0.000000000000000, -1.00000000000000 ) );
#285 = CARTESIAN_POINT( '', ( 0.000000000000000, 0.000000000000000, 0.000000000000000 ) );
#286 = DIRECTION( '', ( 1.00000000000000, -0.000000000000000, 0.000000000000000 ) );
#287 = DIRECTION( '', ( 0.000000000000000, 0.000000000000000, -1.00000000000000 ) );
#288 = CARTESIAN_POINT( '', ( 5000.00000000000, 0.000000000000000, 0.000000000000000 ) );
#289 = DIRECTION( '', ( 1.00000000000000, 0.000000000000000, 0.000000000000000 ) );
#290 = DIRECTION( '', ( 0.000000000000000, 0.000000000000000, -1.00000000000000 ) );
#291 = SURFACE_STYLE_FILL_AREA( #345 );
#292 = ORIENTED_EDGE( '', *, *, #97, .F. );
#293 = ORIENTED_EDGE( '', *, *, #75, .T. );
#294 = ORIENTED_EDGE( '', *, *, #101, .F. );
#295 = ORIENTED_EDGE( '', *, *, #103, .T. );
#296 = CARTESIAN_POINT( '', ( 0.000000000000000, 0.000000000000000, 0.000000000000000 ) );
#297 = DIRECTION( '', ( -1.00000000000000, -0.000000000000000, -0.000000000000000 ) );
#298 = DIRECTION( '', ( 0.000000000000000, 0.000000000000000, -1.00000000000000 ) );
#299 = CARTESIAN_POINT( '', ( 5000.00000000000, 0.000000000000000, 0.000000000000000 ) );
#300 = DIRECTION( '', ( -1.00000000000000, 0.000000000000000, 0.000000000000000 ) );
#301 = DIRECTION( '', ( 0.000000000000000, 0.000000000000000, -1.00000000000000 ) );
#302 = CARTESIAN_POINT( '', ( 0.000000000000000, 0.000000000000000, 0.000000000000000 ) );
#303 = DIRECTION( '', ( 1.00000000000000, -0.000000000000000, 0.000000000000000 ) );
#304 = DIRECTION( '', ( 0.000000000000000, 0.000000000000000, -1.00000000000000 ) );
#305 = DIRECTION( '', ( 1.00000000000000, 0.000000000000000, 0.000000000000000 ) );
#306 = SURFACE_STYLE_FILL_AREA( #346 );
#307 = SURFACE_STYLE_FILL_AREA( #347 );
#308 = ORIENTED_EDGE( '', *, *, #77, .T. );
#309 = ORIENTED_EDGE( '', *, *, #99, .T. );
#310 = ORIENTED_EDGE( '', *, *, #93, .T. );
#311 = ORIENTED_EDGE( '', *, *, #63, .F. );
#312 = CARTESIAN_POINT( '', ( 0.000000000000000, 0.000000000000000, 0.000000000000000 ) );
#313 = DIRECTION( '', ( -1.00000000000000, -0.000000000000000, -0.000000000000000 ) );
#314 = DIRECTION( '', ( 0.000000000000000, 0.000000000000000, -1.00000000000000 ) );
#315 = SURFACE_STYLE_FILL_AREA( #348 );
#316 = ORIENTED_EDGE( '', *, *, #75, .F. );
#317 = ORIENTED_EDGE( '', *, *, #65, .F. );
#318 = ORIENTED_EDGE( '', *, *, #63, .T. );
#319 = ORIENTED_EDGE( '', *, *, #87, .T. );
#320 = CARTESIAN_POINT( '', ( 0.000000000000000, 0.000000000000000, 0.000000000000000 ) );
#321 = DIRECTION( '', ( 1.00000000000000, 0.000000000000000, 0.000000000000000 ) );
#322 = DIRECTION( '', ( 0.000000000000000, 0.000000000000000, -1.00000000000000 ) );
#323 = CARTESIAN_POINT( '', ( 0.000000000000000, 0.000000000000000, 0.000000000000000 ) );
#324 = DIRECTION( '', ( 1.00000000000000, -0.000000000000000, 0.000000000000000 ) );
#325 = DIRECTION( '', ( 0.000000000000000, 0.000000000000000, -1.00000000000000 ) );
#326 = SURFACE_STYLE_FILL_AREA( #349 );
#327 = ORIENTED_EDGE( '', *, *, #77, .F. );
#328 = ORIENTED_EDGE( '', *, *, #87, .F. );
#329 = ORIENTED_EDGE( '', *, *, #93, .F. );
#330 = ORIENTED_EDGE( '', *, *, #67, .T. );
#331 = CARTESIAN_POINT( '', ( 0.000000000000000, 0.000000000000000, 0.000000000000000 ) );
#332 = DIRECTION( '', ( -1.00000000000000, -0.000000000000000, -0.000000000000000 ) );
#333 = DIRECTION( '', ( 0.000000000000000, 0.000000000000000, -1.00000000000000 ) );
#334 = DIRECTION( '', ( -1.00000000000000, 0.000000000000000, 0.000000000000000 ) );
#335 = DIRECTION( '', ( 1.00000000000000, 0.000000000000000, 0.000000000000000 ) );
#336 = CARTESIAN_POINT( '', ( 5000.00000000000, 0.000000000000000, 0.000000000000000 ) );
#337 = DIRECTION( '', ( 1.00000000000000, 0.000000000000000, 0.000000000000000 ) );
#338 = DIRECTION( '', ( 0.000000000000000, 0.000000000000000, -1.00000000000000 ) );
#339 = DIRECTION( '', ( -1.00000000000000, -0.000000000000000, -0.000000000000000 ) );
#340 = CARTESIAN_POINT( '', ( 5000.00000000000, 0.000000000000000, 0.000000000000000 ) );
#341 = DIRECTION( '', ( -1.00000000000000, 0.000000000000000, 0.000000000000000 ) );
#342 = DIRECTION( '', ( 0.000000000000000, 0.000000000000000, -1.00000000000000 ) );
#343 = FILL_AREA_STYLE( '', ( #350 ) );
#344 = FILL_AREA_STYLE( '', ( #351 ) );
#345 = FILL_AREA_STYLE( '', ( #352 ) );
#346 = FILL_AREA_STYLE( '', ( #353 ) );
#347 = FILL_AREA_STYLE( '', ( #354 ) );
#348 = FILL_AREA_STYLE( '', ( #355 ) );
#349 = FILL_AREA_STYLE( '', ( #356 ) );
#350 = FILL_AREA_STYLE_COLOUR( '', #357 );
#351 = FILL_AREA_STYLE_COLOUR( '', #358 );
#352 = FILL_AREA_STYLE_COLOUR( '', #359 );
#353 = FILL_AREA_STYLE_COLOUR( '', #360 );
#354 = FILL_AREA_STYLE_COLOUR( '', #361 );
#355 = FILL_AREA_STYLE_COLOUR( '', #362 );
#356 = FILL_AREA_STYLE_COLOUR( '', #363 );
#357 = COLOUR_RGB( '', 0.689999997615810, 0.689999997615810, 0.689999997615810 );
#358 = COLOUR_RGB( '', 0.689999997615810, 0.689999997615810, 0.689999997615810 );
#359 = COLOUR_RGB( '', 0.689999997615810, 0.689999997615810, 0.689999997615810 );
#360 = COLOUR_RGB( '', 0.689999997615810, 0.689999997615810, 0.689999997615810 );
#361 = COLOUR_RGB( '', 0.689999997615810, 0.689999997615810, 0.689999997615810 );
#362 = COLOUR_RGB( '', 0.689999997615810, 0.689999997615810, 0.689999997615810 );
#363 = COLOUR_RGB( '', 0.689999997615810, 0.689999997615810, 0.689999997615810 );
ENDSEC;
END-ISO-10303-21;
