ISO-10303-21;
HEADER;
FILE_DESCRIPTION(('STEP AP214'),'1');
FILE_NAME('mim110.stp','2018-02-09T08:04:16',('TraceParts'),('TraceParts S.A.'),'Spatial InterOp 3D',' ',' ');
FILE_SCHEMA(('automotive_design'));
ENDSEC;
DATA;
#1=MECHANICAL_DESIGN_GEOMETRIC_PRESENTATION_REPRESENTATION(' ',(#10,#11,#12,#13,#14,#15,#16,#17,#18,#19,#20,#21,#22,#23,#24,#25,#26),#6);
#2=PRODUCT_DEFINITION_CONTEXT('',#27,'design');
#3=APPLICATION_PROTOCOL_DEFINITION('INTERNATIONAL STANDARD','automotive_design',1994,#27);
#4=PRODUCT_CATEGORY_RELATIONSHIP('NONE','NONE',#28,#29);
#5=SHAPE_DEFINITION_REPRESENTATION(#30,#31);
#6= (GEOMETRIC_REPRESENTATION_CONTEXT(3)GLOBAL_UNCERTAINTY_ASSIGNED_CONTEXT((#34))GLOBAL_UNIT_ASSIGNED_CONTEXT((#36,#37,#38))REPRESENTATION_CONTEXT('NONE','WORKSPACE'));
#10=STYLED_ITEM('',(#40),#41);
#11=STYLED_ITEM('',(#42),#43);
#12=STYLED_ITEM('',(#44),#45);
#13=STYLED_ITEM('',(#46),#47);
#14=STYLED_ITEM('',(#48),#49);
#15=STYLED_ITEM('',(#50),#51);
#16=STYLED_ITEM('',(#52),#53);
#17=STYLED_ITEM('',(#54),#55);
#18=STYLED_ITEM('',(#56),#57);
#19=STYLED_ITEM('',(#58),#59);
#20=STYLED_ITEM('',(#60),#61);
#21=STYLED_ITEM('',(#62),#63);
#22=STYLED_ITEM('',(#64),#65);
#23=STYLED_ITEM('',(#66),#67);
#24=STYLED_ITEM('',(#68),#69);
#25=STYLED_ITEM('',(#70),#71);
#26=STYLED_ITEM('',(#72),#73);
#27=APPLICATION_CONTEXT(' ');
#28=PRODUCT_CATEGORY('part','NONE');
#29=PRODUCT_RELATED_PRODUCT_CATEGORY('detail',' ',(#74));
#30=PRODUCT_DEFINITION_SHAPE('NONE','NONE',#75);
#31=ADVANCED_BREP_SHAPE_REPRESENTATION('mim110',(#73,#76),#6);
#34=UNCERTAINTY_MEASURE_WITH_UNIT(LENGTH_MEASURE(1.0E-006),#36,'','');
#36= (CONVERSION_BASED_UNIT('MILLIMETRE',#79)LENGTH_UNIT()NAMED_UNIT(#82));
#37= (NAMED_UNIT(#84)PLANE_ANGLE_UNIT()SI_UNIT($,.RADIAN.));
#38= (NAMED_UNIT(#84)SOLID_ANGLE_UNIT()SI_UNIT($,.STERADIAN.));
#40=PRESENTATION_STYLE_ASSIGNMENT((#90));
#41=ADVANCED_FACE('',(#91),#92,.T.);
#42=PRESENTATION_STYLE_ASSIGNMENT((#93));
#43=ADVANCED_FACE('',(#94),#95,.T.);
#44=PRESENTATION_STYLE_ASSIGNMENT((#96));
#45=ADVANCED_FACE('',(#97),#98,.T.);
#46=PRESENTATION_STYLE_ASSIGNMENT((#99));
#47=ADVANCED_FACE('',(#100),#101,.F.);
#48=PRESENTATION_STYLE_ASSIGNMENT((#102));
#49=ADVANCED_FACE('',(#103),#104,.F.);
#50=PRESENTATION_STYLE_ASSIGNMENT((#105));
#51=ADVANCED_FACE('',(#106),#107,.F.);
#52=PRESENTATION_STYLE_ASSIGNMENT((#108));
#53=ADVANCED_FACE('',(#109,#110),#111,.T.);
#54=PRESENTATION_STYLE_ASSIGNMENT((#112));
#55=ADVANCED_FACE('',(#113,#114),#115,.F.);
#56=PRESENTATION_STYLE_ASSIGNMENT((#116));
#57=ADVANCED_FACE('',(#117),#118,.F.);
#58=PRESENTATION_STYLE_ASSIGNMENT((#119));
#59=ADVANCED_FACE('',(#120),#121,.F.);
#60=PRESENTATION_STYLE_ASSIGNMENT((#122));
#61=ADVANCED_FACE('',(#123),#124,.F.);
#62=PRESENTATION_STYLE_ASSIGNMENT((#125));
#63=ADVANCED_FACE('',(#126),#127,.T.);
#64=PRESENTATION_STYLE_ASSIGNMENT((#128));
#65=ADVANCED_FACE('',(#129),#130,.T.);
#66=PRESENTATION_STYLE_ASSIGNMENT((#131));
#67=ADVANCED_FACE('',(#132),#133,.T.);
#68=PRESENTATION_STYLE_ASSIGNMENT((#134));
#69=ADVANCED_FACE('',(#135,#136),#137,.F.);
#70=PRESENTATION_STYLE_ASSIGNMENT((#138));
#71=ADVANCED_FACE('',(#139,#140),#141,.T.);
#72=PRESENTATION_STYLE_ASSIGNMENT((#142));
#73=MANIFOLD_SOLID_BREP('mim110',#143);
#74=PRODUCT('mim110','mim110','PART-mim110-DESC',(#144));
#75=PRODUCT_DEFINITION('NONE','NONE',#145,#2);
#76=AXIS2_PLACEMENT_3D('',#146,#147,#148);
#79=LENGTH_MEASURE_WITH_UNIT(LENGTH_MEASURE(1.0),#149);
#82=DIMENSIONAL_EXPONENTS(1.0,0.0,0.0,0.0,0.0,0.0,0.0);
#84=DIMENSIONAL_EXPONENTS(0.0,0.0,0.0,0.0,0.0,0.0,0.0);
#90=SURFACE_STYLE_USAGE(.BOTH.,#150);
#91=FACE_OUTER_BOUND('',#151,.T.);
#92=TOROIDAL_SURFACE('',#152,65.5,0.5);
#93=SURFACE_STYLE_USAGE(.BOTH.,#153);
#94=FACE_OUTER_BOUND('',#154,.T.);
#95=CYLINDRICAL_SURFACE('',#155,66.0);
#96=SURFACE_STYLE_USAGE(.BOTH.,#156);
#97=FACE_OUTER_BOUND('',#157,.T.);
#98=TOROIDAL_SURFACE('',#158,65.5,0.5);
#99=SURFACE_STYLE_USAGE(.BOTH.,#159);
#100=FACE_OUTER_BOUND('',#160,.T.);
#101=CYLINDRICAL_SURFACE('',#161,55.0);
#102=SURFACE_STYLE_USAGE(.BOTH.,#162);
#103=FACE_OUTER_BOUND('',#163,.T.);
#104=CYLINDRICAL_SURFACE('',#164,55.0);
#105=SURFACE_STYLE_USAGE(.BOTH.,#165);
#106=FACE_OUTER_BOUND('',#166,.T.);
#107=CYLINDRICAL_SURFACE('',#167,53.0);
#108=SURFACE_STYLE_USAGE(.BOTH.,#168);
#109=FACE_BOUND('',#169,.T.);
#110=FACE_OUTER_BOUND('',#170,.T.);
#111=PLANE('',#171);
#112=SURFACE_STYLE_USAGE(.BOTH.,#172);
#113=FACE_BOUND('',#173,.T.);
#114=FACE_OUTER_BOUND('',#174,.T.);
#115=PLANE('',#175);
#116=SURFACE_STYLE_USAGE(.BOTH.,#176);
#117=FACE_OUTER_BOUND('',#177,.T.);
#118=CYLINDRICAL_SURFACE('',#178,53.0);
#119=SURFACE_STYLE_USAGE(.BOTH.,#179);
#120=FACE_OUTER_BOUND('',#180,.T.);
#121=CYLINDRICAL_SURFACE('',#181,55.0);
#122=SURFACE_STYLE_USAGE(.BOTH.,#182);
#123=FACE_OUTER_BOUND('',#183,.T.);
#124=CYLINDRICAL_SURFACE('',#184,55.0);
#125=SURFACE_STYLE_USAGE(.BOTH.,#185);
#126=FACE_OUTER_BOUND('',#186,.T.);
#127=TOROIDAL_SURFACE('',#187,65.5,0.5);
#128=SURFACE_STYLE_USAGE(.BOTH.,#188);
#129=FACE_OUTER_BOUND('',#189,.T.);
#130=CYLINDRICAL_SURFACE('',#190,66.0);
#131=SURFACE_STYLE_USAGE(.BOTH.,#191);
#132=FACE_OUTER_BOUND('',#192,.T.);
#133=TOROIDAL_SURFACE('',#193,65.5,0.5);
#134=SURFACE_STYLE_USAGE(.BOTH.,#194);
#135=FACE_OUTER_BOUND('',#195,.T.);
#136=FACE_BOUND('',#196,.T.);
#137=PLANE('',#197);
#138=SURFACE_STYLE_USAGE(.BOTH.,#198);
#139=FACE_OUTER_BOUND('',#199,.T.);
#140=FACE_BOUND('',#200,.T.);
#141=PLANE('',#201);
#142=SURFACE_STYLE_USAGE(.BOTH.,#202);
#143=CLOSED_SHELL('',(#41,#43,#45,#47,#49,#51,#53,#55,#57,#59,#61,#63,#65,#67,#69,#71));
#144=PRODUCT_CONTEXT('',#27,'mechanical');
#145=PRODUCT_DEFINITION_FORMATION_WITH_SPECIFIED_SOURCE(' ','NONE',#74,.NOT_KNOWN.);
#146=CARTESIAN_POINT('',(0.0,0.0,0.0));
#147=DIRECTION('',(0.0,0.0,1.0));
#148=DIRECTION('',(1.0,0.0,0.0));
#149= (NAMED_UNIT(#82)LENGTH_UNIT()SI_UNIT(.MILLI.,.METRE.));
#150=SURFACE_SIDE_STYLE('',(#204));
#151=EDGE_LOOP('',(#205,#206,#207,#208));
#152=AXIS2_PLACEMENT_3D('',#209,#210,#211);
#153=SURFACE_SIDE_STYLE('',(#212));
#154=EDGE_LOOP('',(#213,#214,#215,#216));
#155=AXIS2_PLACEMENT_3D('',#217,#218,#219);
#156=SURFACE_SIDE_STYLE('',(#220));
#157=EDGE_LOOP('',(#221,#222,#223,#224));
#158=AXIS2_PLACEMENT_3D('',#225,#226,#227);
#159=SURFACE_SIDE_STYLE('',(#228));
#160=EDGE_LOOP('',(#229,#230,#231,#232));
#161=AXIS2_PLACEMENT_3D('',#233,#234,#235);
#162=SURFACE_SIDE_STYLE('',(#236));
#163=EDGE_LOOP('',(#237,#238,#239,#240));
#164=AXIS2_PLACEMENT_3D('',#241,#242,#243);
#165=SURFACE_SIDE_STYLE('',(#244));
#166=EDGE_LOOP('',(#245,#246,#247,#248));
#167=AXIS2_PLACEMENT_3D('',#249,#250,#251);
#168=SURFACE_SIDE_STYLE('',(#252));
#169=EDGE_LOOP('',(#253,#254));
#170=EDGE_LOOP('',(#255,#256));
#171=AXIS2_PLACEMENT_3D('',#257,#258,#259);
#172=SURFACE_SIDE_STYLE('',(#260));
#173=EDGE_LOOP('',(#261,#262));
#174=EDGE_LOOP('',(#263,#264));
#175=AXIS2_PLACEMENT_3D('',#265,#266,#267);
#176=SURFACE_SIDE_STYLE('',(#268));
#177=EDGE_LOOP('',(#269,#270,#271,#272));
#178=AXIS2_PLACEMENT_3D('',#273,#274,#275);
#179=SURFACE_SIDE_STYLE('',(#276));
#180=EDGE_LOOP('',(#277,#278,#279,#280));
#181=AXIS2_PLACEMENT_3D('',#281,#282,#283);
#182=SURFACE_SIDE_STYLE('',(#284));
#183=EDGE_LOOP('',(#285,#286,#287,#288));
#184=AXIS2_PLACEMENT_3D('',#289,#290,#291);
#185=SURFACE_SIDE_STYLE('',(#292));
#186=EDGE_LOOP('',(#293,#294,#295,#296));
#187=AXIS2_PLACEMENT_3D('',#297,#298,#299);
#188=SURFACE_SIDE_STYLE('',(#300));
#189=EDGE_LOOP('',(#301,#302,#303,#304));
#190=AXIS2_PLACEMENT_3D('',#305,#306,#307);
#191=SURFACE_SIDE_STYLE('',(#308));
#192=EDGE_LOOP('',(#309,#310,#311,#312));
#193=AXIS2_PLACEMENT_3D('',#313,#314,#315);
#194=SURFACE_SIDE_STYLE('',(#316));
#195=EDGE_LOOP('',(#317,#318));
#196=EDGE_LOOP('',(#319,#320));
#197=AXIS2_PLACEMENT_3D('',#321,#322,#323);
#198=SURFACE_SIDE_STYLE('',(#324));
#199=EDGE_LOOP('',(#325,#326));
#200=EDGE_LOOP('',(#327,#328));
#201=AXIS2_PLACEMENT_3D('',#329,#330,#331);
#202=SURFACE_SIDE_STYLE('',(#332));
#204=SURFACE_STYLE_FILL_AREA(#333);
#205=ORIENTED_EDGE('',*,*,#334,.F.);
#206=ORIENTED_EDGE('',*,*,#335,.F.);
#207=ORIENTED_EDGE('',*,*,#336,.F.);
#208=ORIENTED_EDGE('',*,*,#337,.T.);
#209=CARTESIAN_POINT('',(0.0,0.0,-39.5));
#210=DIRECTION('',(0.0,0.0,-1.0));
#211=DIRECTION('',(-1.0,0.0,0.0));
#212=SURFACE_STYLE_FILL_AREA(#338);
#213=ORIENTED_EDGE('',*,*,#339,.F.);
#214=ORIENTED_EDGE('',*,*,#335,.T.);
#215=ORIENTED_EDGE('',*,*,#340,.F.);
#216=ORIENTED_EDGE('',*,*,#341,.F.);
#217=CARTESIAN_POINT('',(0.0,0.0,-40.0));
#218=DIRECTION('',(0.0,0.0,-1.0));
#219=DIRECTION('',(1.0,0.0,0.0));
#220=SURFACE_STYLE_FILL_AREA(#342);
#221=ORIENTED_EDGE('',*,*,#343,.F.);
#222=ORIENTED_EDGE('',*,*,#341,.T.);
#223=ORIENTED_EDGE('',*,*,#344,.F.);
#224=ORIENTED_EDGE('',*,*,#345,.F.);
#225=CARTESIAN_POINT('',(0.0,0.0,52.5));
#226=DIRECTION('',(0.0,0.0,1.0));
#227=DIRECTION('',(1.0,0.0,0.0));
#228=SURFACE_STYLE_FILL_AREA(#346);
#229=ORIENTED_EDGE('',*,*,#347,.F.);
#230=ORIENTED_EDGE('',*,*,#348,.T.);
#231=ORIENTED_EDGE('',*,*,#349,.F.);
#232=ORIENTED_EDGE('',*,*,#350,.F.);
#233=CARTESIAN_POINT('',(0.0,0.0,-40.0));
#234=DIRECTION('',(0.0,0.0,-1.0));
#235=DIRECTION('',(1.0,0.0,0.0));
#236=SURFACE_STYLE_FILL_AREA(#351);
#237=ORIENTED_EDGE('',*,*,#352,.F.);
#238=ORIENTED_EDGE('',*,*,#353,.T.);
#239=ORIENTED_EDGE('',*,*,#354,.F.);
#240=ORIENTED_EDGE('',*,*,#355,.T.);
#241=CARTESIAN_POINT('',(0.0,0.0,13.0));
#242=DIRECTION('',(0.0,0.0,-1.0));
#243=DIRECTION('',(1.0,0.0,0.0));
#244=SURFACE_STYLE_FILL_AREA(#356);
#245=ORIENTED_EDGE('',*,*,#357,.F.);
#246=ORIENTED_EDGE('',*,*,#358,.T.);
#247=ORIENTED_EDGE('',*,*,#359,.F.);
#248=ORIENTED_EDGE('',*,*,#360,.T.);
#249=CARTESIAN_POINT('',(0.0,0.0,13.0));
#250=DIRECTION('',(0.0,0.0,1.0));
#251=DIRECTION('',(-1.0,0.0,0.0));
#252=SURFACE_STYLE_FILL_AREA(#361);
#253=ORIENTED_EDGE('',*,*,#360,.F.);
#254=ORIENTED_EDGE('',*,*,#362,.F.);
#255=ORIENTED_EDGE('',*,*,#363,.F.);
#256=ORIENTED_EDGE('',*,*,#355,.F.);
#257=CARTESIAN_POINT('',(-4.86761606027648E-015,0.0,10.0));
#258=DIRECTION('',(0.0,0.0,1.0));
#259=DIRECTION('',(1.0,-0.0,0.0));
#260=SURFACE_STYLE_FILL_AREA(#364);
#261=ORIENTED_EDGE('',*,*,#365,.F.);
#262=ORIENTED_EDGE('',*,*,#358,.F.);
#263=ORIENTED_EDGE('',*,*,#366,.F.);
#264=ORIENTED_EDGE('',*,*,#348,.F.);
#265=CARTESIAN_POINT('',(4.86761606027648E-015,0.0,3.0));
#266=DIRECTION('',(0.0,0.0,1.0));
#267=DIRECTION('',(1.0,-0.0,0.0));
#268=SURFACE_STYLE_FILL_AREA(#367);
#269=ORIENTED_EDGE('',*,*,#357,.T.);
#270=ORIENTED_EDGE('',*,*,#362,.T.);
#271=ORIENTED_EDGE('',*,*,#359,.T.);
#272=ORIENTED_EDGE('',*,*,#365,.T.);
#273=CARTESIAN_POINT('',(0.0,0.0,13.0));
#274=DIRECTION('',(0.0,0.0,1.0));
#275=DIRECTION('',(-1.0,0.0,0.0));
#276=SURFACE_STYLE_FILL_AREA(#368);
#277=ORIENTED_EDGE('',*,*,#352,.T.);
#278=ORIENTED_EDGE('',*,*,#363,.T.);
#279=ORIENTED_EDGE('',*,*,#354,.T.);
#280=ORIENTED_EDGE('',*,*,#369,.T.);
#281=CARTESIAN_POINT('',(0.0,0.0,13.0));
#282=DIRECTION('',(0.0,0.0,-1.0));
#283=DIRECTION('',(1.0,0.0,0.0));
#284=SURFACE_STYLE_FILL_AREA(#370);
#285=ORIENTED_EDGE('',*,*,#347,.T.);
#286=ORIENTED_EDGE('',*,*,#371,.F.);
#287=ORIENTED_EDGE('',*,*,#349,.T.);
#288=ORIENTED_EDGE('',*,*,#366,.T.);
#289=CARTESIAN_POINT('',(0.0,0.0,-40.0));
#290=DIRECTION('',(0.0,0.0,-1.0));
#291=DIRECTION('',(1.0,0.0,0.0));
#292=SURFACE_STYLE_FILL_AREA(#372);
#293=ORIENTED_EDGE('',*,*,#343,.T.);
#294=ORIENTED_EDGE('',*,*,#373,.F.);
#295=ORIENTED_EDGE('',*,*,#344,.T.);
#296=ORIENTED_EDGE('',*,*,#374,.T.);
#297=CARTESIAN_POINT('',(0.0,0.0,52.5));
#298=DIRECTION('',(0.0,0.0,1.0));
#299=DIRECTION('',(1.0,0.0,0.0));
#300=SURFACE_STYLE_FILL_AREA(#375);
#301=ORIENTED_EDGE('',*,*,#339,.T.);
#302=ORIENTED_EDGE('',*,*,#374,.F.);
#303=ORIENTED_EDGE('',*,*,#340,.T.);
#304=ORIENTED_EDGE('',*,*,#376,.T.);
#305=CARTESIAN_POINT('',(0.0,0.0,-40.0));
#306=DIRECTION('',(0.0,0.0,-1.0));
#307=DIRECTION('',(1.0,0.0,0.0));
#308=SURFACE_STYLE_FILL_AREA(#377);
#309=ORIENTED_EDGE('',*,*,#334,.T.);
#310=ORIENTED_EDGE('',*,*,#378,.T.);
#311=ORIENTED_EDGE('',*,*,#336,.T.);
#312=ORIENTED_EDGE('',*,*,#376,.F.);
#313=CARTESIAN_POINT('',(0.0,0.0,-39.5));
#314=DIRECTION('',(0.0,0.0,-1.0));
#315=DIRECTION('',(-1.0,0.0,0.0));
#316=SURFACE_STYLE_FILL_AREA(#379);
#317=ORIENTED_EDGE('',*,*,#337,.F.);
#318=ORIENTED_EDGE('',*,*,#378,.F.);
#319=ORIENTED_EDGE('',*,*,#371,.T.);
#320=ORIENTED_EDGE('',*,*,#350,.T.);
#321=CARTESIAN_POINT('',(0.0,0.0,-40.0));
#322=DIRECTION('',(0.0,0.0,1.0));
#323=DIRECTION('',(1.0,-0.0,0.0));
#324=SURFACE_STYLE_FILL_AREA(#380);
#325=ORIENTED_EDGE('',*,*,#373,.T.);
#326=ORIENTED_EDGE('',*,*,#345,.T.);
#327=ORIENTED_EDGE('',*,*,#353,.F.);
#328=ORIENTED_EDGE('',*,*,#369,.F.);
#329=CARTESIAN_POINT('',(0.0,0.0,53.0));
#330=DIRECTION('',(0.0,0.0,1.0));
#331=DIRECTION('',(1.0,-0.0,0.0));
#332=SURFACE_STYLE_FILL_AREA(#381);
#333=FILL_AREA_STYLE('',(#382));
#334=EDGE_CURVE('',#383,#384,#385,.T.);
#335=EDGE_CURVE('',#386,#383,#387,.T.);
#336=EDGE_CURVE('',#388,#386,#389,.T.);
#337=EDGE_CURVE('',#388,#384,#390,.T.);
#338=FILL_AREA_STYLE('',(#391));
#339=EDGE_CURVE('',#386,#392,#393,.T.);
#340=EDGE_CURVE('',#394,#383,#395,.T.);
#341=EDGE_CURVE('',#392,#394,#396,.T.);
#342=FILL_AREA_STYLE('',(#397));
#343=EDGE_CURVE('',#392,#398,#399,.T.);
#344=EDGE_CURVE('',#400,#394,#401,.T.);
#345=EDGE_CURVE('',#398,#400,#402,.T.);
#346=FILL_AREA_STYLE('',(#403));
#347=EDGE_CURVE('',#404,#405,#406,.T.);
#348=EDGE_CURVE('',#404,#407,#408,.T.);
#349=EDGE_CURVE('',#409,#407,#410,.T.);
#350=EDGE_CURVE('',#405,#409,#411,.T.);
#351=FILL_AREA_STYLE('',(#412));
#352=EDGE_CURVE('',#413,#414,#415,.T.);
#353=EDGE_CURVE('',#413,#416,#417,.T.);
#354=EDGE_CURVE('',#418,#416,#419,.T.);
#355=EDGE_CURVE('',#418,#414,#420,.T.);
#356=FILL_AREA_STYLE('',(#421));
#357=EDGE_CURVE('',#422,#423,#424,.T.);
#358=EDGE_CURVE('',#422,#425,#426,.T.);
#359=EDGE_CURVE('',#427,#425,#428,.T.);
#360=EDGE_CURVE('',#427,#423,#429,.T.);
#361=FILL_AREA_STYLE('',(#430));
#362=EDGE_CURVE('',#423,#427,#431,.T.);
#363=EDGE_CURVE('',#414,#418,#432,.T.);
#364=FILL_AREA_STYLE('',(#433));
#365=EDGE_CURVE('',#425,#422,#434,.T.);
#366=EDGE_CURVE('',#407,#404,#435,.T.);
#367=FILL_AREA_STYLE('',(#436));
#368=FILL_AREA_STYLE('',(#437));
#369=EDGE_CURVE('',#416,#413,#438,.T.);
#370=FILL_AREA_STYLE('',(#439));
#371=EDGE_CURVE('',#409,#405,#440,.T.);
#372=FILL_AREA_STYLE('',(#441));
#373=EDGE_CURVE('',#400,#398,#442,.T.);
#374=EDGE_CURVE('',#394,#392,#443,.T.);
#375=FILL_AREA_STYLE('',(#444));
#376=EDGE_CURVE('',#383,#386,#445,.T.);
#377=FILL_AREA_STYLE('',(#446));
#378=EDGE_CURVE('',#384,#388,#447,.T.);
#379=FILL_AREA_STYLE('',(#448));
#380=FILL_AREA_STYLE('',(#449));
#381=FILL_AREA_STYLE('',(#450));
#382=FILL_AREA_STYLE_COLOUR('',#451);
#383=VERTEX_POINT('',#452);
#384=VERTEX_POINT('',#453);
#385=CIRCLE('',#454,0.5);
#386=VERTEX_POINT('',#455);
#387=CIRCLE('',#456,66.0);
#388=VERTEX_POINT('',#457);
#389=CIRCLE('',#458,0.5);
#390=CIRCLE('',#459,65.5);
#391=FILL_AREA_STYLE_COLOUR('',#460);
#392=VERTEX_POINT('',#461);
#393=LINE('',#462,#463);
#394=VERTEX_POINT('',#464);
#395=LINE('',#465,#466);
#396=CIRCLE('',#467,66.0);
#397=FILL_AREA_STYLE_COLOUR('',#468);
#398=VERTEX_POINT('',#469);
#399=CIRCLE('',#470,0.5);
#400=VERTEX_POINT('',#471);
#401=CIRCLE('',#472,0.5);
#402=CIRCLE('',#473,65.5);
#403=FILL_AREA_STYLE_COLOUR('',#474);
#404=VERTEX_POINT('',#475);
#405=VERTEX_POINT('',#476);
#406=LINE('',#477,#478);
#407=VERTEX_POINT('',#479);
#408=CIRCLE('',#480,55.0);
#409=VERTEX_POINT('',#481);
#410=LINE('',#482,#483);
#411=CIRCLE('',#484,55.0);
#412=FILL_AREA_STYLE_COLOUR('',#485);
#413=VERTEX_POINT('',#486);
#414=VERTEX_POINT('',#487);
#415=LINE('',#488,#489);
#416=VERTEX_POINT('',#490);
#417=CIRCLE('',#491,55.0);
#418=VERTEX_POINT('',#492);
#419=LINE('',#493,#494);
#420=CIRCLE('',#495,55.0);
#421=FILL_AREA_STYLE_COLOUR('',#496);
#422=VERTEX_POINT('',#497);
#423=VERTEX_POINT('',#498);
#424=LINE('',#499,#500);
#425=VERTEX_POINT('',#501);
#426=CIRCLE('',#502,53.0);
#427=VERTEX_POINT('',#503);
#428=LINE('',#504,#505);
#429=CIRCLE('',#506,53.0);
#430=FILL_AREA_STYLE_COLOUR('',#507);
#431=CIRCLE('',#508,53.0);
#432=CIRCLE('',#509,55.0);
#433=FILL_AREA_STYLE_COLOUR('',#510);
#434=CIRCLE('',#511,53.0);
#435=CIRCLE('',#512,55.0);
#436=FILL_AREA_STYLE_COLOUR('',#513);
#437=FILL_AREA_STYLE_COLOUR('',#514);
#438=CIRCLE('',#515,55.0);
#439=FILL_AREA_STYLE_COLOUR('',#516);
#440=CIRCLE('',#517,55.0);
#441=FILL_AREA_STYLE_COLOUR('',#518);
#442=CIRCLE('',#519,65.5);
#443=CIRCLE('',#520,66.0);
#444=FILL_AREA_STYLE_COLOUR('',#521);
#445=CIRCLE('',#522,66.0);
#446=FILL_AREA_STYLE_COLOUR('',#523);
#447=CIRCLE('',#524,65.5);
#448=FILL_AREA_STYLE_COLOUR('',#525);
#449=FILL_AREA_STYLE_COLOUR('',#526);
#450=FILL_AREA_STYLE_COLOUR('',#527);
#451=COLOUR_RGB('',0.905882358551025,0.839215695858002,0.674509823322296);
#452=CARTESIAN_POINT('',(-66.0,0.0,-39.5));
#453=CARTESIAN_POINT('',(-65.5,-8.02117161753657E-015,-40.0));
#454=AXIS2_PLACEMENT_3D('',#528,#529,#530);
#455=CARTESIAN_POINT('',(66.0,8.08240193522769E-015,-39.5));
#456=AXIS2_PLACEMENT_3D('',#531,#532,#533);
#457=CARTESIAN_POINT('',(65.5,0.0,-40.0));
#458=AXIS2_PLACEMENT_3D('',#534,#535,#536);
#459=AXIS2_PLACEMENT_3D('',#537,#538,#539);
#460=COLOUR_RGB('',0.905882358551025,0.839215695858002,0.674509823322296);
#461=CARTESIAN_POINT('',(66.0,-8.08240193522769E-015,52.5));
#462=CARTESIAN_POINT('',(66.0,8.08240193522769E-015,6.5));
#463=VECTOR('',#540,1.0);
#464=CARTESIAN_POINT('',(-66.0,-8.082402E-015,52.5));
#465=CARTESIAN_POINT('',(-66.0,-8.08240193522769E-015,6.5));
#466=VECTOR('',#541,1.0);
#467=AXIS2_PLACEMENT_3D('',#542,#543,#544);
#468=COLOUR_RGB('',0.905882358551025,0.839215695858002,0.674509823322296);
#469=CARTESIAN_POINT('',(65.5,-8.02117161753657E-015,53.0));
#470=AXIS2_PLACEMENT_3D('',#545,#546,#547);
#471=CARTESIAN_POINT('',(-65.5,-8.021172E-015,53.0));
#472=AXIS2_PLACEMENT_3D('',#548,#549,#550);
#473=AXIS2_PLACEMENT_3D('',#551,#552,#553);
#474=COLOUR_RGB('',0.905882358551025,0.839215695858002,0.674509823322296);
#475=CARTESIAN_POINT('',(55.0,6.73533494602307E-015,3.0));
#476=CARTESIAN_POINT('',(55.0,6.73533494602307E-015,-40.0));
#477=CARTESIAN_POINT('',(55.0,6.73533494602307E-015,-40.0));
#478=VECTOR('',#554,1.0);
#479=CARTESIAN_POINT('',(-55.0,6.73555739531044E-015,3.0));
#480=AXIS2_PLACEMENT_3D('',#555,#556,#557);
#481=CARTESIAN_POINT('',(-55.0,-6.735335E-015,-40.0));
#482=CARTESIAN_POINT('',(-55.0,-6.73533494602307E-015,-40.0));
#483=VECTOR('',#558,1.0);
#484=AXIS2_PLACEMENT_3D('',#559,#560,#561);
#485=COLOUR_RGB('',0.905882358551025,0.839215695858002,0.674509823322296);
#486=CARTESIAN_POINT('',(55.0,6.73555739531044E-015,53.0));
#487=CARTESIAN_POINT('',(55.0,6.73555739531044E-015,10.0));
#488=CARTESIAN_POINT('',(55.0,6.73533494602307E-015,13.0));
#489=VECTOR('',#562,1.0);
#490=CARTESIAN_POINT('',(-55.0,-6.73533494602307E-015,53.0));
#491=AXIS2_PLACEMENT_3D('',#563,#564,#565);
#492=CARTESIAN_POINT('',(-55.0,-6.73533494602307E-015,10.0));
#493=CARTESIAN_POINT('',(-55.0,-6.73533494602307E-015,13.0));
#494=VECTOR('',#566,1.0);
#495=AXIS2_PLACEMENT_3D('',#567,#568,#569);
#496=COLOUR_RGB('',0.905882358551025,0.839215695858002,0.674509823322296);
#497=CARTESIAN_POINT('',(-53.0,6.4904136752586E-015,3.0));
#498=CARTESIAN_POINT('',(-53.0,6.4904136752586E-015,10.0));
#499=CARTESIAN_POINT('',(-53.0,6.4904136752586E-015,6.5));
#500=VECTOR('',#570,1.0);
#501=CARTESIAN_POINT('',(53.0,-6.49062803548097E-015,3.0));
#502=AXIS2_PLACEMENT_3D('',#571,#572,#573);
#503=CARTESIAN_POINT('',(53.0,6.49062803548097E-015,10.0));
#504=CARTESIAN_POINT('',(53.0,-6.4904136752586E-015,6.5));
#505=VECTOR('',#574,1.0);
#506=AXIS2_PLACEMENT_3D('',#575,#576,#577);
#507=COLOUR_RGB('',0.905882358551025,0.839215695858002,0.674509823322296);
#508=AXIS2_PLACEMENT_3D('',#578,#579,#580);
#509=AXIS2_PLACEMENT_3D('',#581,#582,#583);
#510=COLOUR_RGB('',0.905882358551025,0.839215695858002,0.674509823322296);
#511=AXIS2_PLACEMENT_3D('',#584,#585,#586);
#512=AXIS2_PLACEMENT_3D('',#587,#588,#589);
#513=COLOUR_RGB('',0.905882358551025,0.839215695858002,0.674509823322296);
#514=COLOUR_RGB('',0.905882358551025,0.839215695858002,0.674509823322296);
#515=AXIS2_PLACEMENT_3D('',#590,#591,#592);
#516=COLOUR_RGB('',0.905882358551025,0.839215695858002,0.674509823322296);
#517=AXIS2_PLACEMENT_3D('',#593,#594,#595);
#518=COLOUR_RGB('',0.905882358551025,0.839215695858002,0.674509823322296);
#519=AXIS2_PLACEMENT_3D('',#596,#597,#598);
#520=AXIS2_PLACEMENT_3D('',#599,#600,#601);
#521=COLOUR_RGB('',0.905882358551025,0.839215695858002,0.674509823322296);
#522=AXIS2_PLACEMENT_3D('',#602,#603,#604);
#523=COLOUR_RGB('',0.905882358551025,0.839215695858002,0.674509823322296);
#524=AXIS2_PLACEMENT_3D('',#605,#606,#607);
#525=COLOUR_RGB('',0.905882358551025,0.839215695858002,0.674509823322296);
#526=COLOUR_RGB('',0.905882358551025,0.839215695858002,0.674509823322296);
#527=COLOUR_RGB('',0.905882358551025,0.839215695858002,0.674509823322296);
#528=CARTESIAN_POINT('',(-65.5,-8.02117161753657E-015,-39.5));
#529=DIRECTION('',(1.22460635382238E-016,-1.0,-0.0));
#530=DIRECTION('',(-1.0,-1.22460635382238E-016,0.0));
#531=CARTESIAN_POINT('',(0.0,0.0,-39.5));
#532=DIRECTION('',(0.0,0.0,1.0));
#533=DIRECTION('',(1.0,0.0,0.0));
#534=CARTESIAN_POINT('',(65.5,8.02117161753657E-015,-39.5));
#535=DIRECTION('',(1.22460635382238E-016,-1.0,-0.0));
#536=DIRECTION('',(1.0,1.22460635382238E-016,0.0));
#537=CARTESIAN_POINT('',(0.0,0.0,-40.0));
#538=DIRECTION('',(0.0,0.0,1.0));
#539=DIRECTION('',(1.0,0.0,0.0));
#540=DIRECTION('',(-0.0,-0.0,1.0));
#541=DIRECTION('',(0.0,0.0,-1.0));
#542=CARTESIAN_POINT('',(0.0,0.0,52.5));
#543=DIRECTION('',(0.0,0.0,1.0));
#544=DIRECTION('',(1.0,0.0,0.0));
#545=CARTESIAN_POINT('',(65.5,-8.02117161753657E-015,52.5));
#546=DIRECTION('',(-1.22460635382238E-016,-1.0,0.0));
#547=DIRECTION('',(1.0,-1.22460635382238E-016,-0.0));
#548=CARTESIAN_POINT('',(-65.5,8.02117161753657E-015,52.5));
#549=DIRECTION('',(-1.22460635382238E-016,-1.0,0.0));
#550=DIRECTION('',(-1.0,1.22460635382238E-016,0.0));
#551=CARTESIAN_POINT('',(0.0,0.0,53.0));
#552=DIRECTION('',(0.0,0.0,1.0));
#553=DIRECTION('',(1.0,0.0,0.0));
#554=DIRECTION('',(-0.0,-0.0,-1.0));
#555=CARTESIAN_POINT('',(0.0,0.0,3.0));
#556=DIRECTION('',(0.0,0.0,1.0));
#557=DIRECTION('',(1.0,0.0,0.0));
#558=DIRECTION('',(-0.0,-0.0,1.0));
#559=CARTESIAN_POINT('',(0.0,0.0,-40.0));
#560=DIRECTION('',(0.0,0.0,1.0));
#561=DIRECTION('',(1.0,0.0,0.0));
#562=DIRECTION('',(-0.0,-0.0,-1.0));
#563=CARTESIAN_POINT('',(0.0,0.0,53.0));
#564=DIRECTION('',(0.0,0.0,1.0));
#565=DIRECTION('',(1.0,0.0,0.0));
#566=DIRECTION('',(-0.0,-0.0,1.0));
#567=CARTESIAN_POINT('',(0.0,0.0,10.0));
#568=DIRECTION('',(0.0,0.0,-1.0));
#569=DIRECTION('',(-1.0,0.0,0.0));
#570=DIRECTION('',(0.0,-0.0,1.0));
#571=CARTESIAN_POINT('',(0.0,0.0,3.0));
#572=DIRECTION('',(0.0,0.0,-1.0));
#573=DIRECTION('',(-1.0,0.0,0.0));
#574=DIRECTION('',(0.0,0.0,-1.0));
#575=CARTESIAN_POINT('',(0.0,0.0,10.0));
#576=DIRECTION('',(0.0,0.0,1.0));
#577=DIRECTION('',(-1.0,0.0,0.0));
#578=CARTESIAN_POINT('',(0.0,0.0,10.0));
#579=DIRECTION('',(0.0,0.0,1.0));
#580=DIRECTION('',(-1.0,0.0,0.0));
#581=CARTESIAN_POINT('',(0.0,0.0,10.0));
#582=DIRECTION('',(0.0,0.0,-1.0));
#583=DIRECTION('',(-1.0,0.0,0.0));
#584=CARTESIAN_POINT('',(0.0,0.0,3.0));
#585=DIRECTION('',(0.0,0.0,-1.0));
#586=DIRECTION('',(-1.0,0.0,0.0));
#587=CARTESIAN_POINT('',(0.0,0.0,3.0));
#588=DIRECTION('',(0.0,0.0,1.0));
#589=DIRECTION('',(1.0,0.0,0.0));
#590=CARTESIAN_POINT('',(0.0,0.0,53.0));
#591=DIRECTION('',(0.0,0.0,1.0));
#592=DIRECTION('',(1.0,0.0,0.0));
#593=CARTESIAN_POINT('',(0.0,0.0,-40.0));
#594=DIRECTION('',(0.0,0.0,1.0));
#595=DIRECTION('',(1.0,0.0,0.0));
#596=CARTESIAN_POINT('',(0.0,0.0,53.0));
#597=DIRECTION('',(0.0,0.0,1.0));
#598=DIRECTION('',(1.0,0.0,0.0));
#599=CARTESIAN_POINT('',(0.0,0.0,52.5));
#600=DIRECTION('',(0.0,0.0,1.0));
#601=DIRECTION('',(1.0,0.0,0.0));
#602=CARTESIAN_POINT('',(0.0,0.0,-39.5));
#603=DIRECTION('',(0.0,0.0,1.0));
#604=DIRECTION('',(1.0,0.0,0.0));
#605=CARTESIAN_POINT('',(0.0,0.0,-40.0));
#606=DIRECTION('',(0.0,0.0,1.0));
#607=DIRECTION('',(1.0,0.0,0.0));
ENDSEC;
END-ISO-10303-21;
