ISO-10303-21;
HEADER;
/* Generated by software containing ST-Developer
 * from STEP Tools, Inc. (www.steptools.com) 
 */

FILE_DESCRIPTION(
/* description */ (''),
/* implementation_level */ '2;1');

FILE_NAME(
/* name */ 
'Q:\\Ric010\\FF7\\FIPlastiCAD\\FIP\\Lavoro\\PVC Fittings\\PVC Fittings
 STEP\\LIV\\LIV032114.ipt.stp',
/* time_stamp */ '2013-10-01T14:45:29+02:00',
/* author */ ('bfaro'),
/* organization */ (''),
/* preprocessor_version */ 'ST-DEVELOPER v15.2',
/* originating_system */ 'Autodesk Inventor 2014',
/* authorisation */ '');

FILE_SCHEMA (('AUTOMOTIVE_DESIGN { 1 0 10303 214 3 1 1 }'));
ENDSEC;

DATA;
#10=SHAPE_REPRESENTATION_RELATIONSHIP('SRR','None',#503,#11);
#11=ADVANCED_BREP_SHAPE_REPRESENTATION($,(#298),#494);
#12=STYLED_ITEM($,(#511),#298);
#13=CONICAL_SURFACE($,#326,10.223462819564,15.);
#14=CYLINDRICAL_SURFACE($,#313,16.);
#15=CYLINDRICAL_SURFACE($,#317,19.);
#16=CYLINDRICAL_SURFACE($,#320,20.955);
#17=CYLINDRICAL_SURFACE($,#324,10.9469256391281);
#18=CYLINDRICAL_SURFACE($,#328,9.5);
#19=FACE_BOUND($,#67,.T.);
#20=FACE_BOUND($,#68,.T.);
#21=FACE_BOUND($,#70,.T.);
#22=FACE_BOUND($,#72,.T.);
#23=FACE_BOUND($,#74,.T.);
#24=FACE_BOUND($,#76,.T.);
#25=FACE_BOUND($,#78,.T.);
#26=FACE_BOUND($,#80,.T.);
#27=FACE_BOUND($,#81,.T.);
#28=FACE_BOUND($,#82,.T.);
#29=FACE_BOUND($,#84,.T.);
#30=FACE_BOUND($,#86,.T.);
#31=FACE_BOUND($,#88,.T.);
#32=CIRCLE($,#309,20.955);
#33=CIRCLE($,#311,16.);
#34=CIRCLE($,#312,9.5);
#35=CIRCLE($,#314,16.);
#36=CIRCLE($,#316,19.);
#37=CIRCLE($,#318,19.);
#38=CIRCLE($,#321,20.955);
#39=CIRCLE($,#323,10.9469256391281);
#40=CIRCLE($,#325,10.9469256391281);
#41=CIRCLE($,#327,9.5);
#42=FACE_OUTER_BOUND($,#59,.T.);
#43=FACE_OUTER_BOUND($,#60,.T.);
#44=FACE_OUTER_BOUND($,#61,.T.);
#45=FACE_OUTER_BOUND($,#62,.T.);
#46=FACE_OUTER_BOUND($,#63,.T.);
#47=FACE_OUTER_BOUND($,#64,.T.);
#48=FACE_OUTER_BOUND($,#65,.T.);
#49=FACE_OUTER_BOUND($,#66,.T.);
#50=FACE_OUTER_BOUND($,#69,.T.);
#51=FACE_OUTER_BOUND($,#71,.T.);
#52=FACE_OUTER_BOUND($,#73,.T.);
#53=FACE_OUTER_BOUND($,#75,.T.);
#54=FACE_OUTER_BOUND($,#77,.T.);
#55=FACE_OUTER_BOUND($,#79,.T.);
#56=FACE_OUTER_BOUND($,#83,.T.);
#57=FACE_OUTER_BOUND($,#85,.T.);
#58=FACE_OUTER_BOUND($,#87,.T.);
#59=EDGE_LOOP($,(#197,#198,#199,#200));
#60=EDGE_LOOP($,(#201,#202,#203,#204));
#61=EDGE_LOOP($,(#205,#206,#207,#208));
#62=EDGE_LOOP($,(#209,#210,#211,#212));
#63=EDGE_LOOP($,(#213,#214,#215,#216));
#64=EDGE_LOOP($,(#217,#218,#219,#220));
#65=EDGE_LOOP($,(#221,#222,#223,#224));
#66=EDGE_LOOP($,(#225,#226,#227,#228));
#67=EDGE_LOOP($,(#229));
#68=EDGE_LOOP($,(#230,#231,#232,#233,#234,#235,#236,#237));
#69=EDGE_LOOP($,(#238));
#70=EDGE_LOOP($,(#239));
#71=EDGE_LOOP($,(#240));
#72=EDGE_LOOP($,(#241));
#73=EDGE_LOOP($,(#242));
#74=EDGE_LOOP($,(#243));
#75=EDGE_LOOP($,(#244));
#76=EDGE_LOOP($,(#245));
#77=EDGE_LOOP($,(#246,#247,#248,#249,#250,#251,#252,#253));
#78=EDGE_LOOP($,(#254));
#79=EDGE_LOOP($,(#255));
#80=EDGE_LOOP($,(#256));
#81=EDGE_LOOP($,(#257));
#82=EDGE_LOOP($,(#258));
#83=EDGE_LOOP($,(#259));
#84=EDGE_LOOP($,(#260));
#85=EDGE_LOOP($,(#261));
#86=EDGE_LOOP($,(#262));
#87=EDGE_LOOP($,(#263));
#88=EDGE_LOOP($,(#264));
#89=LINE($,#417,#113);
#90=LINE($,#419,#114);
#91=LINE($,#421,#115);
#92=LINE($,#422,#116);
#93=LINE($,#425,#117);
#94=LINE($,#427,#118);
#95=LINE($,#428,#119);
#96=LINE($,#431,#120);
#97=LINE($,#433,#121);
#98=LINE($,#434,#122);
#99=LINE($,#437,#123);
#100=LINE($,#439,#124);
#101=LINE($,#440,#125);
#102=LINE($,#443,#126);
#103=LINE($,#445,#127);
#104=LINE($,#446,#128);
#105=LINE($,#449,#129);
#106=LINE($,#451,#130);
#107=LINE($,#452,#131);
#108=LINE($,#455,#132);
#109=LINE($,#457,#133);
#110=LINE($,#458,#134);
#111=LINE($,#460,#135);
#112=LINE($,#461,#136);
#113=VECTOR($,#333,22.7817459305202);
#114=VECTOR($,#334,11.);
#115=VECTOR($,#335,22.7817459305202);
#116=VECTOR($,#336,11.);
#117=VECTOR($,#339,22.7817459305202);
#118=VECTOR($,#340,22.7817459305202);
#119=VECTOR($,#341,11.);
#120=VECTOR($,#344,22.7817459305202);
#121=VECTOR($,#345,22.7817459305202);
#122=VECTOR($,#346,11.);
#123=VECTOR($,#349,22.7817459305202);
#124=VECTOR($,#350,22.7817459305202);
#125=VECTOR($,#351,11.);
#126=VECTOR($,#354,22.7817459305202);
#127=VECTOR($,#355,22.7817459305202);
#128=VECTOR($,#356,11.);
#129=VECTOR($,#359,22.7817459305202);
#130=VECTOR($,#360,22.7817459305202);
#131=VECTOR($,#361,11.);
#132=VECTOR($,#364,22.7817459305202);
#133=VECTOR($,#365,22.7817459305202);
#134=VECTOR($,#366,11.);
#135=VECTOR($,#369,22.7817459305202);
#136=VECTOR($,#370,22.7817459305202);
#137=VERTEX_POINT($,#415);
#138=VERTEX_POINT($,#416);
#139=VERTEX_POINT($,#418);
#140=VERTEX_POINT($,#420);
#141=VERTEX_POINT($,#424);
#142=VERTEX_POINT($,#426);
#143=VERTEX_POINT($,#430);
#144=VERTEX_POINT($,#432);
#145=VERTEX_POINT($,#436);
#146=VERTEX_POINT($,#438);
#147=VERTEX_POINT($,#442);
#148=VERTEX_POINT($,#444);
#149=VERTEX_POINT($,#448);
#150=VERTEX_POINT($,#450);
#151=VERTEX_POINT($,#454);
#152=VERTEX_POINT($,#456);
#153=VERTEX_POINT($,#463);
#154=VERTEX_POINT($,#466);
#155=VERTEX_POINT($,#468);
#156=VERTEX_POINT($,#471);
#157=VERTEX_POINT($,#474);
#158=VERTEX_POINT($,#477);
#159=VERTEX_POINT($,#481);
#160=VERTEX_POINT($,#484);
#161=VERTEX_POINT($,#487);
#162=VERTEX_POINT($,#490);
#163=EDGE_CURVE($,#137,#138,#89,.T.);
#164=EDGE_CURVE($,#138,#139,#90,.T.);
#165=EDGE_CURVE($,#140,#139,#91,.T.);
#166=EDGE_CURVE($,#137,#140,#92,.T.);
#167=EDGE_CURVE($,#141,#137,#93,.T.);
#168=EDGE_CURVE($,#142,#140,#94,.T.);
#169=EDGE_CURVE($,#141,#142,#95,.T.);
#170=EDGE_CURVE($,#143,#141,#96,.T.);
#171=EDGE_CURVE($,#144,#142,#97,.T.);
#172=EDGE_CURVE($,#143,#144,#98,.T.);
#173=EDGE_CURVE($,#145,#143,#99,.T.);
#174=EDGE_CURVE($,#146,#144,#100,.T.);
#175=EDGE_CURVE($,#145,#146,#101,.T.);
#176=EDGE_CURVE($,#147,#145,#102,.T.);
#177=EDGE_CURVE($,#148,#146,#103,.T.);
#178=EDGE_CURVE($,#147,#148,#104,.T.);
#179=EDGE_CURVE($,#149,#147,#105,.T.);
#180=EDGE_CURVE($,#150,#148,#106,.T.);
#181=EDGE_CURVE($,#149,#150,#107,.T.);
#182=EDGE_CURVE($,#151,#149,#108,.T.);
#183=EDGE_CURVE($,#152,#150,#109,.T.);
#184=EDGE_CURVE($,#151,#152,#110,.T.);
#185=EDGE_CURVE($,#138,#151,#111,.T.);
#186=EDGE_CURVE($,#139,#152,#112,.T.);
#187=EDGE_CURVE($,#153,#153,#32,.T.);
#188=EDGE_CURVE($,#154,#154,#33,.T.);
#189=EDGE_CURVE($,#155,#155,#34,.T.);
#190=EDGE_CURVE($,#156,#156,#35,.T.);
#191=EDGE_CURVE($,#157,#157,#36,.T.);
#192=EDGE_CURVE($,#158,#158,#37,.T.);
#193=EDGE_CURVE($,#159,#159,#38,.T.);
#194=EDGE_CURVE($,#160,#160,#39,.T.);
#195=EDGE_CURVE($,#161,#161,#40,.T.);
#196=EDGE_CURVE($,#162,#162,#41,.T.);
#197=ORIENTED_EDGE($,*,*,#163,.T.);
#198=ORIENTED_EDGE($,*,*,#164,.T.);
#199=ORIENTED_EDGE($,*,*,#165,.F.);
#200=ORIENTED_EDGE($,*,*,#166,.F.);
#201=ORIENTED_EDGE($,*,*,#167,.T.);
#202=ORIENTED_EDGE($,*,*,#166,.T.);
#203=ORIENTED_EDGE($,*,*,#168,.F.);
#204=ORIENTED_EDGE($,*,*,#169,.F.);
#205=ORIENTED_EDGE($,*,*,#170,.T.);
#206=ORIENTED_EDGE($,*,*,#169,.T.);
#207=ORIENTED_EDGE($,*,*,#171,.F.);
#208=ORIENTED_EDGE($,*,*,#172,.F.);
#209=ORIENTED_EDGE($,*,*,#173,.T.);
#210=ORIENTED_EDGE($,*,*,#172,.T.);
#211=ORIENTED_EDGE($,*,*,#174,.F.);
#212=ORIENTED_EDGE($,*,*,#175,.F.);
#213=ORIENTED_EDGE($,*,*,#176,.T.);
#214=ORIENTED_EDGE($,*,*,#175,.T.);
#215=ORIENTED_EDGE($,*,*,#177,.F.);
#216=ORIENTED_EDGE($,*,*,#178,.F.);
#217=ORIENTED_EDGE($,*,*,#179,.T.);
#218=ORIENTED_EDGE($,*,*,#178,.T.);
#219=ORIENTED_EDGE($,*,*,#180,.F.);
#220=ORIENTED_EDGE($,*,*,#181,.F.);
#221=ORIENTED_EDGE($,*,*,#182,.T.);
#222=ORIENTED_EDGE($,*,*,#181,.T.);
#223=ORIENTED_EDGE($,*,*,#183,.F.);
#224=ORIENTED_EDGE($,*,*,#184,.F.);
#225=ORIENTED_EDGE($,*,*,#185,.T.);
#226=ORIENTED_EDGE($,*,*,#184,.T.);
#227=ORIENTED_EDGE($,*,*,#186,.F.);
#228=ORIENTED_EDGE($,*,*,#164,.F.);
#229=ORIENTED_EDGE($,*,*,#187,.F.);
#230=ORIENTED_EDGE($,*,*,#186,.T.);
#231=ORIENTED_EDGE($,*,*,#183,.T.);
#232=ORIENTED_EDGE($,*,*,#180,.T.);
#233=ORIENTED_EDGE($,*,*,#177,.T.);
#234=ORIENTED_EDGE($,*,*,#174,.T.);
#235=ORIENTED_EDGE($,*,*,#171,.T.);
#236=ORIENTED_EDGE($,*,*,#168,.T.);
#237=ORIENTED_EDGE($,*,*,#165,.T.);
#238=ORIENTED_EDGE($,*,*,#188,.F.);
#239=ORIENTED_EDGE($,*,*,#189,.T.);
#240=ORIENTED_EDGE($,*,*,#190,.F.);
#241=ORIENTED_EDGE($,*,*,#188,.T.);
#242=ORIENTED_EDGE($,*,*,#191,.F.);
#243=ORIENTED_EDGE($,*,*,#190,.T.);
#244=ORIENTED_EDGE($,*,*,#192,.F.);
#245=ORIENTED_EDGE($,*,*,#191,.T.);
#246=ORIENTED_EDGE($,*,*,#185,.F.);
#247=ORIENTED_EDGE($,*,*,#163,.F.);
#248=ORIENTED_EDGE($,*,*,#167,.F.);
#249=ORIENTED_EDGE($,*,*,#170,.F.);
#250=ORIENTED_EDGE($,*,*,#173,.F.);
#251=ORIENTED_EDGE($,*,*,#176,.F.);
#252=ORIENTED_EDGE($,*,*,#179,.F.);
#253=ORIENTED_EDGE($,*,*,#182,.F.);
#254=ORIENTED_EDGE($,*,*,#192,.T.);
#255=ORIENTED_EDGE($,*,*,#187,.T.);
#256=ORIENTED_EDGE($,*,*,#193,.F.);
#257=ORIENTED_EDGE($,*,*,#194,.F.);
#258=ORIENTED_EDGE($,*,*,#193,.T.);
#259=ORIENTED_EDGE($,*,*,#195,.F.);
#260=ORIENTED_EDGE($,*,*,#194,.T.);
#261=ORIENTED_EDGE($,*,*,#196,.F.);
#262=ORIENTED_EDGE($,*,*,#195,.T.);
#263=ORIENTED_EDGE($,*,*,#189,.F.);
#264=ORIENTED_EDGE($,*,*,#196,.T.);
#265=PLANE($,#300);
#266=PLANE($,#301);
#267=PLANE($,#302);
#268=PLANE($,#303);
#269=PLANE($,#304);
#270=PLANE($,#305);
#271=PLANE($,#306);
#272=PLANE($,#307);
#273=PLANE($,#308);
#274=PLANE($,#310);
#275=PLANE($,#315);
#276=PLANE($,#319);
#277=PLANE($,#322);
#278=ADVANCED_FACE($,(#42),#265,.T.);
#279=ADVANCED_FACE($,(#43),#266,.T.);
#280=ADVANCED_FACE($,(#44),#267,.T.);
#281=ADVANCED_FACE($,(#45),#268,.T.);
#282=ADVANCED_FACE($,(#46),#269,.T.);
#283=ADVANCED_FACE($,(#47),#270,.T.);
#284=ADVANCED_FACE($,(#48),#271,.T.);
#285=ADVANCED_FACE($,(#49),#272,.T.);
#286=ADVANCED_FACE($,(#19,#20),#273,.F.);
#287=ADVANCED_FACE($,(#50,#21),#274,.T.);
#288=ADVANCED_FACE($,(#51,#22),#14,.T.);
#289=ADVANCED_FACE($,(#52,#23),#275,.T.);
#290=ADVANCED_FACE($,(#53,#24),#15,.T.);
#291=ADVANCED_FACE($,(#54,#25),#276,.T.);
#292=ADVANCED_FACE($,(#55,#26),#16,.T.);
#293=ADVANCED_FACE($,(#27,#28),#277,.T.);
#294=ADVANCED_FACE($,(#56,#29),#17,.F.);
#295=ADVANCED_FACE($,(#57,#30),#13,.F.);
#296=ADVANCED_FACE($,(#58,#31),#18,.F.);
#297=CLOSED_SHELL($,(#278,#279,#280,#281,#282,#283,#284,#285,#286,#287,
#288,#289,#290,#291,#292,#293,#294,#295,#296));
#298=MANIFOLD_SOLID_BREP('Solido1',#297);
#299=AXIS2_PLACEMENT_3D('placement',#413,#329,#330);
#300=AXIS2_PLACEMENT_3D($,#414,#331,#332);
#301=AXIS2_PLACEMENT_3D($,#423,#337,#338);
#302=AXIS2_PLACEMENT_3D($,#429,#342,#343);
#303=AXIS2_PLACEMENT_3D($,#435,#347,#348);
#304=AXIS2_PLACEMENT_3D($,#441,#352,#353);
#305=AXIS2_PLACEMENT_3D($,#447,#357,#358);
#306=AXIS2_PLACEMENT_3D($,#453,#362,#363);
#307=AXIS2_PLACEMENT_3D($,#459,#367,#368);
#308=AXIS2_PLACEMENT_3D($,#462,#371,#372);
#309=AXIS2_PLACEMENT_3D($,#464,#373,#374);
#310=AXIS2_PLACEMENT_3D($,#465,#375,#376);
#311=AXIS2_PLACEMENT_3D($,#467,#377,#378);
#312=AXIS2_PLACEMENT_3D($,#469,#379,#380);
#313=AXIS2_PLACEMENT_3D($,#470,#381,#382);
#314=AXIS2_PLACEMENT_3D($,#472,#383,#384);
#315=AXIS2_PLACEMENT_3D($,#473,#385,#386);
#316=AXIS2_PLACEMENT_3D($,#475,#387,#388);
#317=AXIS2_PLACEMENT_3D($,#476,#389,#390);
#318=AXIS2_PLACEMENT_3D($,#478,#391,#392);
#319=AXIS2_PLACEMENT_3D($,#479,#393,#394);
#320=AXIS2_PLACEMENT_3D($,#480,#395,#396);
#321=AXIS2_PLACEMENT_3D($,#482,#397,#398);
#322=AXIS2_PLACEMENT_3D($,#483,#399,#400);
#323=AXIS2_PLACEMENT_3D($,#485,#401,#402);
#324=AXIS2_PLACEMENT_3D($,#486,#403,#404);
#325=AXIS2_PLACEMENT_3D($,#488,#405,#406);
#326=AXIS2_PLACEMENT_3D($,#489,#407,#408);
#327=AXIS2_PLACEMENT_3D($,#491,#409,#410);
#328=AXIS2_PLACEMENT_3D($,#492,#411,#412);
#329=DIRECTION('axis',(0.,0.,1.));
#330=DIRECTION('refdir',(1.,0.,0.));
#331=DIRECTION('center_axis',(-0.38268343236509,0.923879532511287,0.));
#332=DIRECTION('ref_axis',(0.923879532511287,0.38268343236509,0.));
#333=DIRECTION($,(0.923879532511287,0.38268343236509,0.));
#334=DIRECTION($,(0.,0.,-1.));
#335=DIRECTION($,(0.923879532511287,0.38268343236509,0.));
#336=DIRECTION($,(0.,0.,-1.));
#337=DIRECTION('center_axis',(-0.923879532511287,0.38268343236509,0.));
#338=DIRECTION('ref_axis',(0.38268343236509,0.923879532511287,0.));
#339=DIRECTION($,(0.38268343236509,0.923879532511287,0.));
#340=DIRECTION($,(0.38268343236509,0.923879532511287,0.));
#341=DIRECTION($,(0.,0.,-1.));
#342=DIRECTION('center_axis',(-0.923879532511287,-0.38268343236509,0.));
#343=DIRECTION('ref_axis',(-0.38268343236509,0.923879532511287,0.));
#344=DIRECTION($,(-0.38268343236509,0.923879532511287,0.));
#345=DIRECTION($,(-0.38268343236509,0.923879532511287,0.));
#346=DIRECTION($,(0.,0.,-1.));
#347=DIRECTION('center_axis',(-0.38268343236509,-0.923879532511287,0.));
#348=DIRECTION('ref_axis',(-0.923879532511287,0.38268343236509,0.));
#349=DIRECTION($,(-0.923879532511287,0.38268343236509,0.));
#350=DIRECTION($,(-0.923879532511287,0.38268343236509,0.));
#351=DIRECTION($,(0.,0.,-1.));
#352=DIRECTION('center_axis',(0.38268343236509,-0.923879532511287,0.));
#353=DIRECTION('ref_axis',(-0.923879532511287,-0.38268343236509,0.));
#354=DIRECTION($,(-0.923879532511287,-0.38268343236509,0.));
#355=DIRECTION($,(-0.923879532511287,-0.38268343236509,0.));
#356=DIRECTION($,(0.,0.,-1.));
#357=DIRECTION('center_axis',(0.923879532511287,-0.38268343236509,0.));
#358=DIRECTION('ref_axis',(-0.38268343236509,-0.923879532511287,0.));
#359=DIRECTION($,(-0.38268343236509,-0.923879532511287,0.));
#360=DIRECTION($,(-0.38268343236509,-0.923879532511287,0.));
#361=DIRECTION($,(0.,0.,-1.));
#362=DIRECTION('center_axis',(0.923879532511287,0.38268343236509,0.));
#363=DIRECTION('ref_axis',(0.38268343236509,-0.923879532511287,0.));
#364=DIRECTION($,(0.38268343236509,-0.923879532511287,0.));
#365=DIRECTION($,(0.38268343236509,-0.923879532511287,0.));
#366=DIRECTION($,(0.,0.,-1.));
#367=DIRECTION('center_axis',(0.38268343236509,0.923879532511287,0.));
#368=DIRECTION('ref_axis',(0.923879532511287,-0.38268343236509,0.));
#369=DIRECTION($,(0.923879532511287,-0.38268343236509,0.));
#370=DIRECTION($,(0.923879532511287,-0.38268343236509,0.));
#371=DIRECTION('center_axis',(0.,0.,1.));
#372=DIRECTION('ref_axis',(1.,0.,0.));
#373=DIRECTION('center_axis',(0.,0.,-1.));
#374=DIRECTION('ref_axis',(0.,1.,0.));
#375=DIRECTION('center_axis',(0.,0.,1.));
#376=DIRECTION('ref_axis',(1.,0.,0.));
#377=DIRECTION('center_axis',(0.,0.,-1.));
#378=DIRECTION('ref_axis',(0.,1.,0.));
#379=DIRECTION('center_axis',(0.,0.,-1.));
#380=DIRECTION('ref_axis',(0.,1.,0.));
#381=DIRECTION('center_axis',(0.,0.,-1.));
#382=DIRECTION('ref_axis',(0.,1.,0.));
#383=DIRECTION('center_axis',(0.,0.,-1.));
#384=DIRECTION('ref_axis',(0.,1.,0.));
#385=DIRECTION('center_axis',(0.,0.,1.));
#386=DIRECTION('ref_axis',(1.,0.,0.));
#387=DIRECTION('center_axis',(0.,0.,-1.));
#388=DIRECTION('ref_axis',(0.,1.,0.));
#389=DIRECTION('center_axis',(0.,0.,-1.));
#390=DIRECTION('ref_axis',(0.,1.,0.));
#391=DIRECTION('center_axis',(0.,0.,-1.));
#392=DIRECTION('ref_axis',(0.,1.,0.));
#393=DIRECTION('center_axis',(0.,0.,1.));
#394=DIRECTION('ref_axis',(1.,0.,0.));
#395=DIRECTION('center_axis',(0.,0.,-1.));
#396=DIRECTION('ref_axis',(0.,1.,0.));
#397=DIRECTION('center_axis',(0.,0.,-1.));
#398=DIRECTION('ref_axis',(0.,1.,0.));
#399=DIRECTION('center_axis',(0.,0.,-1.));
#400=DIRECTION('ref_axis',(-1.,0.,0.));
#401=DIRECTION('center_axis',(0.,0.,-1.));
#402=DIRECTION('ref_axis',(0.,1.,0.));
#403=DIRECTION('center_axis',(0.,0.,-1.));
#404=DIRECTION('ref_axis',(0.,1.,0.));
#405=DIRECTION('center_axis',(0.,0.,-1.));
#406=DIRECTION('ref_axis',(0.,1.,0.));
#407=DIRECTION('center_axis',(0.,0.,-1.));
#408=DIRECTION('ref_axis',(0.,1.,0.));
#409=DIRECTION('center_axis',(0.,0.,-1.));
#410=DIRECTION('ref_axis',(0.,1.,0.));
#411=DIRECTION('center_axis',(0.,0.,-1.));
#412=DIRECTION('ref_axis',(0.,1.,0.));
#413=CARTESIAN_POINT('',(0.,0.,0.));
#414=CARTESIAN_POINT('Origin',(-21.0475887800799,21.0475887800799,41.));
#415=CARTESIAN_POINT('',(-21.0475887800799,21.0475887800799,41.));
#416=CARTESIAN_POINT('',(-2.16368633771502E-016,29.7657855080408,41.));
#417=CARTESIAN_POINT($,(-21.0475887800799,21.0475887800799,41.));
#418=CARTESIAN_POINT('',(-2.16368633771502E-016,29.7657855080408,30.));
#419=CARTESIAN_POINT($,(-2.16368633771502E-016,29.7657855080408,41.));
#420=CARTESIAN_POINT('',(-21.0475887800799,21.0475887800799,30.));
#421=CARTESIAN_POINT($,(-21.0475887800799,21.0475887800799,30.));
#422=CARTESIAN_POINT($,(-21.0475887800799,21.0475887800799,41.));
#423=CARTESIAN_POINT('Origin',(-29.7657855080408,-4.65113829416696E-015,
41.));
#424=CARTESIAN_POINT('',(-29.7657855080408,-4.65113829416696E-015,41.));
#425=CARTESIAN_POINT($,(-29.7657855080408,-4.65113829416696E-015,41.));
#426=CARTESIAN_POINT('',(-29.7657855080408,-4.44089209850063E-015,30.));
#427=CARTESIAN_POINT($,(-29.7657855080408,-4.65113829416696E-015,30.));
#428=CARTESIAN_POINT($,(-29.7657855080408,-4.65113829416696E-015,41.));
#429=CARTESIAN_POINT('Origin',(-21.0475887800799,-21.0475887800799,41.));
#430=CARTESIAN_POINT('',(-21.0475887800799,-21.0475887800799,41.));
#431=CARTESIAN_POINT($,(-21.0475887800799,-21.0475887800799,41.));
#432=CARTESIAN_POINT('',(-21.0475887800799,-21.0475887800799,30.));
#433=CARTESIAN_POINT($,(-21.0475887800799,-21.0475887800799,30.));
#434=CARTESIAN_POINT($,(-21.0475887800799,-21.0475887800799,41.));
#435=CARTESIAN_POINT('Origin',(5.20174306912481E-016,-29.7657855080408,
41.));
#436=CARTESIAN_POINT('',(5.20174306912481E-016,-29.7657855080408,41.));
#437=CARTESIAN_POINT($,(5.20174306912481E-016,-29.7657855080408,41.));
#438=CARTESIAN_POINT('',(5.20174306912481E-016,-29.7657855080408,30.));
#439=CARTESIAN_POINT($,(5.20174306912481E-016,-29.7657855080408,30.));
#440=CARTESIAN_POINT($,(5.20174306912481E-016,-29.7657855080408,41.));
#441=CARTESIAN_POINT('Origin',(21.0475887800799,-21.0475887800799,41.));
#442=CARTESIAN_POINT('',(21.0475887800799,-21.0475887800799,41.));
#443=CARTESIAN_POINT($,(21.0475887800799,-21.0475887800799,41.));
#444=CARTESIAN_POINT('',(21.0475887800799,-21.0475887800799,30.));
#445=CARTESIAN_POINT($,(21.0475887800799,-21.0475887800799,30.));
#446=CARTESIAN_POINT($,(21.0475887800799,-21.0475887800799,41.));
#447=CARTESIAN_POINT('Origin',(29.7657855080408,-5.9298976529308E-015,41.));
#448=CARTESIAN_POINT('',(29.7657855080408,-5.9298976529308E-015,41.));
#449=CARTESIAN_POINT($,(29.7657855080408,-5.9298976529308E-015,41.));
#450=CARTESIAN_POINT('',(29.7657855080408,-4.44089209850063E-015,30.));
#451=CARTESIAN_POINT($,(29.7657855080408,-5.9298976529308E-015,30.));
#452=CARTESIAN_POINT($,(29.7657855080408,-5.9298976529308E-015,41.));
#453=CARTESIAN_POINT('Origin',(21.0475887800799,21.0475887800799,41.));
#454=CARTESIAN_POINT('',(21.0475887800799,21.0475887800799,41.));
#455=CARTESIAN_POINT($,(21.0475887800799,21.0475887800799,41.));
#456=CARTESIAN_POINT('',(21.0475887800799,21.0475887800799,30.));
#457=CARTESIAN_POINT($,(21.0475887800799,21.0475887800799,30.));
#458=CARTESIAN_POINT($,(21.0475887800799,21.0475887800799,41.));
#459=CARTESIAN_POINT('Origin',(-2.16368633771502E-016,29.7657855080408,
41.));
#460=CARTESIAN_POINT($,(-2.16368633771502E-016,29.7657855080408,41.));
#461=CARTESIAN_POINT($,(-2.16368633771502E-016,29.7657855080408,30.));
#462=CARTESIAN_POINT('Origin',(-5.48246348858645E-016,3.65497565905763E-016,
30.));
#463=CARTESIAN_POINT('',(20.955,2.56624736761328E-015,30.));
#464=CARTESIAN_POINT('Origin',(0.,0.,30.));
#465=CARTESIAN_POINT('Origin',(0.,12.75,66.));
#466=CARTESIAN_POINT('',(0.,16.,66.));
#467=CARTESIAN_POINT('Origin',(0.,0.,66.));
#468=CARTESIAN_POINT('',(0.,9.5,66.));
#469=CARTESIAN_POINT('Origin',(0.,0.,66.));
#470=CARTESIAN_POINT('Origin',(0.,0.,55.));
#471=CARTESIAN_POINT('',(0.,16.,44.));
#472=CARTESIAN_POINT('Origin',(0.,0.,44.));
#473=CARTESIAN_POINT('Origin',(0.,17.5,44.));
#474=CARTESIAN_POINT('',(0.,19.,44.));
#475=CARTESIAN_POINT('Origin',(0.,0.,44.));
#476=CARTESIAN_POINT('Origin',(0.,0.,42.5));
#477=CARTESIAN_POINT('',(0.,19.,41.));
#478=CARTESIAN_POINT('Origin',(0.,0.,41.));
#479=CARTESIAN_POINT('Origin',(0.,19.9775,41.));
#480=CARTESIAN_POINT('Origin',(0.,0.,20.5));
#481=CARTESIAN_POINT('',(0.,20.955,0.));
#482=CARTESIAN_POINT('Origin',(0.,0.,0.));
#483=CARTESIAN_POINT('Origin',(0.,15.950962819564,0.));
#484=CARTESIAN_POINT('',(0.,10.9469256391281,0.));
#485=CARTESIAN_POINT('Origin',(0.,0.,0.));
#486=CARTESIAN_POINT('Origin',(0.,0.,18.8));
#487=CARTESIAN_POINT('',(0.,10.9469256391281,37.6));
#488=CARTESIAN_POINT('Origin',(0.,0.,37.6));
#489=CARTESIAN_POINT('Origin',(0.,0.,40.3));
#490=CARTESIAN_POINT('',(0.,9.5,43.));
#491=CARTESIAN_POINT('Origin',(0.,0.,43.));
#492=CARTESIAN_POINT('Origin',(0.,0.,54.5));
#493=UNCERTAINTY_MEASURE_WITH_UNIT(LENGTH_MEASURE(0.01),#495,
'DISTANCE_ACCURACY_VALUE',
'Maximum model space distance between geometric entities at asserted c
onnectivities');
#494=(
GEOMETRIC_REPRESENTATION_CONTEXT(3)
GLOBAL_UNCERTAINTY_ASSIGNED_CONTEXT((#493))
GLOBAL_UNIT_ASSIGNED_CONTEXT((#495,#498,#496))
REPRESENTATION_CONTEXT('','3D')
);
#495=(
LENGTH_UNIT()
NAMED_UNIT(*)
SI_UNIT(.MILLI.,.METRE.)
);
#496=(
NAMED_UNIT(*)
SI_UNIT($,.STERADIAN.)
SOLID_ANGLE_UNIT()
);
#497=DIMENSIONAL_EXPONENTS(0.,0.,0.,0.,0.,0.,0.);
#498=(
CONVERSION_BASED_UNIT('degree',#500)
NAMED_UNIT(#497)
PLANE_ANGLE_UNIT()
);
#499=(
NAMED_UNIT(*)
PLANE_ANGLE_UNIT()
SI_UNIT($,.RADIAN.)
);
#500=PLANE_ANGLE_MEASURE_WITH_UNIT(PLANE_ANGLE_MEASURE(0.01745329252),#499);
#501=SHAPE_DEFINITION_REPRESENTATION(#502,#503);
#502=PRODUCT_DEFINITION_SHAPE('',$,#505);
#503=SHAPE_REPRESENTATION('',(#299),#494);
#504=PRODUCT_DEFINITION_CONTEXT('3D Mechanical Parts',#508,'design');
#505=PRODUCT_DEFINITION('LIV032114','LIV032114',#506,#504);
#506=PRODUCT_DEFINITION_FORMATION('',$,#510);
#507=APPLICATION_PROTOCOL_DEFINITION('international standard',
'automotive_design',2009,#508);
#508=APPLICATION_CONTEXT(
'Core Data for Automotive Mechanical Design Process');
#509=PRODUCT_CONTEXT('3D Mechanical Parts',#508,'mechanical');
#510=PRODUCT('LIV032114','LIV032114',$,(#509));
#511=PRESENTATION_STYLE_ASSIGNMENT((#512));
#512=SURFACE_STYLE_USAGE(.BOTH.,#513);
#513=SURFACE_SIDE_STYLE($,(#514));
#514=SURFACE_STYLE_FILL_AREA(#515);
#515=FILL_AREA_STYLE($,(#516));
#516=FILL_AREA_STYLE_COLOUR($,#517);
#517=COLOUR_RGB('',0.509803921568627,0.509803921568627,0.588235294117647);
ENDSEC;
END-ISO-10303-21;
