ISO-10303-21;
HEADER;
/* Generated by software containing ST-Developer
 * from STEP Tools, Inc. (www.steptools.com) 
 */

FILE_DESCRIPTION(
/* description */ (''),
/* implementation_level */ '2;1');

FILE_NAME(
/* name */ 'C:\\Users\\Gabriele\\Desktop\\disegni 3D_2D\\RB90\\RB90280
R.stp',
/* time_stamp */ '2017-03-13T16:55:27+01:00',
/* author */ ('Gabriele'),
/* organization */ (''),
/* preprocessor_version */ 'ST-DEVELOPER v16.5',
/* originating_system */ 'Autodesk Inventor 2017',
/* authorisation */ '');

FILE_SCHEMA (('AUTOMOTIVE_DESIGN { 1 0 10303 214 3 1 1 }'));
ENDSEC;

DATA;
#10=MECHANICAL_DESIGN_GEOMETRIC_PRESENTATION_REPRESENTATION('',(#13),#143);
#11=SHAPE_REPRESENTATION_RELATIONSHIP('SRR','None',#152,#12);
#12=ADVANCED_BREP_SHAPE_REPRESENTATION('',(#14),#142);
#13=STYLED_ITEM('',(#161),#14);
#14=MANIFOLD_SOLID_BREP('Solido1',#81);
#15=PLANE('',#88);
#16=PLANE('',#92);
#17=CYLINDRICAL_SURFACE('',#86,123.);
#18=CYLINDRICAL_SURFACE('',#90,125.);
#19=CYLINDRICAL_SURFACE('',#94,140.);
#20=FACE_BOUND('',#33,.T.);
#21=FACE_BOUND('',#35,.T.);
#22=FACE_BOUND('',#37,.T.);
#23=FACE_BOUND('',#39,.T.);
#24=FACE_BOUND('',#41,.T.);
#25=FACE_BOUND('',#43,.T.);
#26=FACE_OUTER_BOUND('',#32,.T.);
#27=FACE_OUTER_BOUND('',#34,.T.);
#28=FACE_OUTER_BOUND('',#36,.T.);
#29=FACE_OUTER_BOUND('',#38,.T.);
#30=FACE_OUTER_BOUND('',#40,.T.);
#31=FACE_OUTER_BOUND('',#42,.T.);
#32=EDGE_LOOP('',(#62));
#33=EDGE_LOOP('',(#63));
#34=EDGE_LOOP('',(#64));
#35=EDGE_LOOP('',(#65));
#36=EDGE_LOOP('',(#66));
#37=EDGE_LOOP('',(#67));
#38=EDGE_LOOP('',(#68));
#39=EDGE_LOOP('',(#69));
#40=EDGE_LOOP('',(#70));
#41=EDGE_LOOP('',(#71));
#42=EDGE_LOOP('',(#72));
#43=EDGE_LOOP('',(#73));
#44=CIRCLE('',#84,140.);
#45=CIRCLE('',#85,123.);
#46=CIRCLE('',#87,123.);
#47=CIRCLE('',#89,125.);
#48=CIRCLE('',#91,125.);
#49=CIRCLE('',#93,140.);
#50=VERTEX_POINT('',#123);
#51=VERTEX_POINT('',#125);
#52=VERTEX_POINT('',#128);
#53=VERTEX_POINT('',#131);
#54=VERTEX_POINT('',#134);
#55=VERTEX_POINT('',#137);
#56=EDGE_CURVE('',#50,#50,#44,.T.);
#57=EDGE_CURVE('',#51,#51,#45,.T.);
#58=EDGE_CURVE('',#52,#52,#46,.T.);
#59=EDGE_CURVE('',#53,#53,#47,.T.);
#60=EDGE_CURVE('',#54,#54,#48,.T.);
#61=EDGE_CURVE('',#55,#55,#49,.T.);
#62=ORIENTED_EDGE('',*,*,#56,.T.);
#63=ORIENTED_EDGE('',*,*,#57,.F.);
#64=ORIENTED_EDGE('',*,*,#57,.T.);
#65=ORIENTED_EDGE('',*,*,#58,.F.);
#66=ORIENTED_EDGE('',*,*,#59,.F.);
#67=ORIENTED_EDGE('',*,*,#58,.T.);
#68=ORIENTED_EDGE('',*,*,#59,.T.);
#69=ORIENTED_EDGE('',*,*,#60,.F.);
#70=ORIENTED_EDGE('',*,*,#61,.F.);
#71=ORIENTED_EDGE('',*,*,#60,.T.);
#72=ORIENTED_EDGE('',*,*,#61,.T.);
#73=ORIENTED_EDGE('',*,*,#56,.F.);
#74=CONICAL_SURFACE('',#83,131.5,52.5946433685914);
#75=ADVANCED_FACE('',(#26,#20),#74,.F.);
#76=ADVANCED_FACE('',(#27,#21),#17,.F.);
#77=ADVANCED_FACE('',(#28,#22),#15,.T.);
#78=ADVANCED_FACE('',(#29,#23),#18,.F.);
#79=ADVANCED_FACE('',(#30,#24),#16,.T.);
#80=ADVANCED_FACE('',(#31,#25),#19,.T.);
#81=CLOSED_SHELL('',(#75,#76,#77,#78,#79,#80));
#82=AXIS2_PLACEMENT_3D('placement',#121,#95,#96);
#83=AXIS2_PLACEMENT_3D('',#122,#97,#98);
#84=AXIS2_PLACEMENT_3D('',#124,#99,#100);
#85=AXIS2_PLACEMENT_3D('',#126,#101,#102);
#86=AXIS2_PLACEMENT_3D('',#127,#103,#104);
#87=AXIS2_PLACEMENT_3D('',#129,#105,#106);
#88=AXIS2_PLACEMENT_3D('',#130,#107,#108);
#89=AXIS2_PLACEMENT_3D('',#132,#109,#110);
#90=AXIS2_PLACEMENT_3D('',#133,#111,#112);
#91=AXIS2_PLACEMENT_3D('',#135,#113,#114);
#92=AXIS2_PLACEMENT_3D('',#136,#115,#116);
#93=AXIS2_PLACEMENT_3D('',#138,#117,#118);
#94=AXIS2_PLACEMENT_3D('',#139,#119,#120);
#95=DIRECTION('axis',(0.,0.,1.));
#96=DIRECTION('refdir',(1.,0.,0.));
#97=DIRECTION('center_axis',(-1.,0.,0.));
#98=DIRECTION('ref_axis',(0.,-1.,0.));
#99=DIRECTION('center_axis',(-1.,0.,0.));
#100=DIRECTION('ref_axis',(0.,0.,1.));
#101=DIRECTION('center_axis',(-1.,0.,0.));
#102=DIRECTION('ref_axis',(0.,0.,1.));
#103=DIRECTION('center_axis',(-1.,0.,0.));
#104=DIRECTION('ref_axis',(0.,-1.,0.));
#105=DIRECTION('center_axis',(-1.,0.,0.));
#106=DIRECTION('ref_axis',(0.,0.,1.));
#107=DIRECTION('center_axis',(1.,0.,0.));
#108=DIRECTION('ref_axis',(0.,0.,-1.));
#109=DIRECTION('center_axis',(-1.,0.,0.));
#110=DIRECTION('ref_axis',(0.,0.,1.));
#111=DIRECTION('center_axis',(-1.,0.,0.));
#112=DIRECTION('ref_axis',(0.,-1.,0.));
#113=DIRECTION('center_axis',(-1.,0.,0.));
#114=DIRECTION('ref_axis',(0.,0.,1.));
#115=DIRECTION('center_axis',(1.,0.,0.));
#116=DIRECTION('ref_axis',(0.,0.,-1.));
#117=DIRECTION('center_axis',(-1.,0.,0.));
#118=DIRECTION('ref_axis',(0.,0.,1.));
#119=DIRECTION('center_axis',(-1.,0.,0.));
#120=DIRECTION('ref_axis',(0.,-1.,0.));
#121=CARTESIAN_POINT('',(0.,0.,0.));
#122=CARTESIAN_POINT('Origin',(6.49999999999999,0.,0.));
#123=CARTESIAN_POINT('',(0.,-140.,0.));
#124=CARTESIAN_POINT('Origin',(0.,0.,0.));
#125=CARTESIAN_POINT('',(13.,-123.,0.));
#126=CARTESIAN_POINT('Origin',(13.,0.,0.));
#127=CARTESIAN_POINT('Origin',(14.,0.,0.));
#128=CARTESIAN_POINT('',(15.,-123.,0.));
#129=CARTESIAN_POINT('Origin',(15.,0.,0.));
#130=CARTESIAN_POINT('Origin',(15.,-125.,0.));
#131=CARTESIAN_POINT('',(15.,-125.,0.));
#132=CARTESIAN_POINT('Origin',(15.,0.,0.));
#133=CARTESIAN_POINT('Origin',(81.,0.,0.));
#134=CARTESIAN_POINT('',(147.,-125.,0.));
#135=CARTESIAN_POINT('Origin',(147.,0.,0.));
#136=CARTESIAN_POINT('Origin',(147.,-140.,0.));
#137=CARTESIAN_POINT('',(147.,-140.,0.));
#138=CARTESIAN_POINT('Origin',(147.,0.,0.));
#139=CARTESIAN_POINT('Origin',(73.5,0.,0.));
#140=UNCERTAINTY_MEASURE_WITH_UNIT(LENGTH_MEASURE(0.01),#144,
'DISTANCE_ACCURACY_VALUE',
'Maximum model space distance between geometric entities at asserted c
onnectivities');
#141=UNCERTAINTY_MEASURE_WITH_UNIT(LENGTH_MEASURE(1.E-6),#144,
'DISTANCE_ACCURACY_VALUE',
'Maximum model space distance between geometric entities at asserted c
onnectivities');
#142=(
GEOMETRIC_REPRESENTATION_CONTEXT(3)
GLOBAL_UNCERTAINTY_ASSIGNED_CONTEXT((#140))
GLOBAL_UNIT_ASSIGNED_CONTEXT((#144,#147,#145))
REPRESENTATION_CONTEXT('','3D')
);
#143=(
GEOMETRIC_REPRESENTATION_CONTEXT(3)
GLOBAL_UNCERTAINTY_ASSIGNED_CONTEXT((#141))
GLOBAL_UNIT_ASSIGNED_CONTEXT((#144,#147,#145))
REPRESENTATION_CONTEXT('','3D')
);
#144=(
LENGTH_UNIT()
NAMED_UNIT(*)
SI_UNIT(.MILLI.,.METRE.)
);
#145=(
NAMED_UNIT(*)
SI_UNIT($,.STERADIAN.)
SOLID_ANGLE_UNIT()
);
#146=DIMENSIONAL_EXPONENTS(0.,0.,0.,0.,0.,0.,0.);
#147=(
CONVERSION_BASED_UNIT('degree',#149)
NAMED_UNIT(#146)
PLANE_ANGLE_UNIT()
);
#148=(
NAMED_UNIT(*)
PLANE_ANGLE_UNIT()
SI_UNIT($,.RADIAN.)
);
#149=PLANE_ANGLE_MEASURE_WITH_UNIT(PLANE_ANGLE_MEASURE(0.01745329252),#148);
#150=SHAPE_DEFINITION_REPRESENTATION(#151,#152);
#151=PRODUCT_DEFINITION_SHAPE('',$,#154);
#152=SHAPE_REPRESENTATION('',(#82),#142);
#153=PRODUCT_DEFINITION_CONTEXT('part definition',#158,'design');
#154=PRODUCT_DEFINITION('RB90280R','RB90280R',#155,#153);
#155=PRODUCT_DEFINITION_FORMATION('',$,#160);
#156=PRODUCT_RELATED_PRODUCT_CATEGORY('RB90280R','RB90280R',(#160));
#157=APPLICATION_PROTOCOL_DEFINITION('international standard',
'automotive_design',2009,#158);
#158=APPLICATION_CONTEXT(
'Core Data for Automotive Mechanical Design Process');
#159=PRODUCT_CONTEXT('part definition',#158,'mechanical');
#160=PRODUCT('RB90280R','RB90280R',$,(#159));
#161=PRESENTATION_STYLE_ASSIGNMENT((#162));
#162=SURFACE_STYLE_USAGE(.BOTH.,#163);
#163=SURFACE_SIDE_STYLE('',(#164));
#164=SURFACE_STYLE_FILL_AREA(#165);
#165=FILL_AREA_STYLE('',(#166));
#166=FILL_AREA_STYLE_COLOUR('',#167);
#167=COLOUR_RGB('',0.749019607843137,0.749019607843137,0.749019607843137);
ENDSEC;
END-ISO-10303-21;
