ISO-10303-21;
HEADER;
FILE_DESCRIPTION( ( '' ), '1' );
FILE_NAME( '//se01002/users/anro/AGRU_70706014011_PE_100_RC_schwarz_Rohr_6m_140X12_7__SDR11__ISO_S-5_05.stp', '2017-12-12T07:56:50', ( '' ), ( '' ), ' ', ' ', ' ' );
FILE_SCHEMA( ( 'automotive_design' ) );
ENDSEC;
DATA;
#1 = MECHANICAL_DESIGN_GEOMETRIC_PRESENTATION_REPRESENTATION( ' ', ( #10, #11, #12, #13, #14, #15, #16, #17, #18, #19, #20, #21, #22, #23, #24, #25, #26, #27, #28, #29, #30, #31, #32, #33, #34, #35, #36 ), #6 );
#2 = PRODUCT_DEFINITION_CONTEXT( '', #37, 'design' );
#3 = APPLICATION_PROTOCOL_DEFINITION( 'INTERNATIONAL STANDARD', 'automotive_design', 1994, #37 );
#4 = PRODUCT_CATEGORY_RELATIONSHIP( 'NONE', 'NONE', #38, #39 );
#5 = SHAPE_DEFINITION_REPRESENTATION( #40, #41 );
#6 =  ( GEOMETRIC_REPRESENTATION_CONTEXT( 3 )GLOBAL_UNCERTAINTY_ASSIGNED_CONTEXT( ( #44 ) )GLOBAL_UNIT_ASSIGNED_CONTEXT( ( #46, #47, #48 ) )REPRESENTATION_CONTEXT( 'NONE', 'WORKSPACE' ) );
#10 = STYLED_ITEM( '', ( #50 ), #51 );
#11 = STYLED_ITEM( '', ( #52 ), #53 );
#12 = STYLED_ITEM( '', ( #54 ), #55 );
#13 = STYLED_ITEM( '', ( #56 ), #57 );
#14 = STYLED_ITEM( '', ( #58 ), #59 );
#15 = STYLED_ITEM( '', ( #60 ), #61 );
#16 = STYLED_ITEM( '', ( #62 ), #63 );
#17 = STYLED_ITEM( '', ( #64 ), #65 );
#18 = STYLED_ITEM( '', ( #66 ), #67 );
#19 = STYLED_ITEM( '', ( #68 ), #69 );
#20 = STYLED_ITEM( '', ( #70 ), #71 );
#21 = STYLED_ITEM( '', ( #72 ), #73 );
#22 = STYLED_ITEM( '', ( #74 ), #75 );
#23 = STYLED_ITEM( '', ( #76 ), #77 );
#24 = STYLED_ITEM( '', ( #78 ), #79 );
#25 = STYLED_ITEM( '', ( #80 ), #81 );
#26 = STYLED_ITEM( '', ( #82 ), #83 );
#27 = STYLED_ITEM( '', ( #84 ), #85 );
#28 = STYLED_ITEM( '', ( #86 ), #87 );
#29 = STYLED_ITEM( '', ( #88 ), #89 );
#30 = STYLED_ITEM( '', ( #90 ), #91 );
#31 = STYLED_ITEM( '', ( #92 ), #93 );
#32 = STYLED_ITEM( '', ( #94 ), #95 );
#33 = STYLED_ITEM( '', ( #96 ), #97 );
#34 = STYLED_ITEM( '', ( #98 ), #99 );
#35 = STYLED_ITEM( '', ( #100 ), #101 );
#36 = STYLED_ITEM( '', ( #102 ), #103 );
#37 = APPLICATION_CONTEXT( ' ' );
#38 = PRODUCT_CATEGORY( 'part', 'NONE' );
#39 = PRODUCT_RELATED_PRODUCT_CATEGORY( 'detail', ' ', ( #104 ) );
#40 = PRODUCT_DEFINITION_SHAPE( 'NONE', 'NONE', #105 );
#41 = ADVANCED_BREP_SHAPE_REPRESENTATION( '1', ( #75, #106 ), #6 );
#44 = UNCERTAINTY_MEASURE_WITH_UNIT( LENGTH_MEASURE( 1.00000000000000E-006 ), #46, '', '' );
#46 =  ( CONVERSION_BASED_UNIT( 'MILLIMETRE', #109 )LENGTH_UNIT(  )NAMED_UNIT( #112 ) );
#47 =  ( NAMED_UNIT( #114 )PLANE_ANGLE_UNIT(  )SI_UNIT( $, .RADIAN. ) );
#48 =  ( NAMED_UNIT( #114 )SOLID_ANGLE_UNIT(  )SI_UNIT( $, .STERADIAN. ) );
#50 = PRESENTATION_STYLE_ASSIGNMENT( ( #120 ) );
#51 = EDGE_CURVE( '', #81, #87, #121, .T. );
#52 = PRESENTATION_STYLE_ASSIGNMENT( ( #122 ) );
#53 = ADVANCED_FACE( '', ( #123, #124 ), #125, .T. );
#54 = PRESENTATION_STYLE_ASSIGNMENT( ( #126 ) );
#55 = ADVANCED_FACE( '', ( #127, #128 ), #129, .F. );
#56 = PRESENTATION_STYLE_ASSIGNMENT( ( #130 ) );
#57 = EDGE_CURVE( '', #83, #79, #131, .T. );
#58 = PRESENTATION_STYLE_ASSIGNMENT( ( #132 ) );
#59 = ADVANCED_FACE( '', ( #133 ), #134, .F. );
#60 = PRESENTATION_STYLE_ASSIGNMENT( ( #135 ) );
#61 = VERTEX_POINT( '', #136 );
#62 = PRESENTATION_STYLE_ASSIGNMENT( ( #137 ) );
#63 = EDGE_CURVE( '', #79, #83, #138, .T. );
#64 = PRESENTATION_STYLE_ASSIGNMENT( ( #139 ) );
#65 = EDGE_CURVE( '', #77, #81, #140, .T. );
#66 = PRESENTATION_STYLE_ASSIGNMENT( ( #141 ) );
#67 = VERTEX_POINT( '', #142 );
#68 = PRESENTATION_STYLE_ASSIGNMENT( ( #143 ) );
#69 = EDGE_CURVE( '', #87, #67, #144, .T. );
#70 = PRESENTATION_STYLE_ASSIGNMENT( ( #145 ) );
#71 = EDGE_CURVE( '', #101, #61, #146, .T. );
#72 = PRESENTATION_STYLE_ASSIGNMENT( ( #147 ) );
#73 = EDGE_CURVE( '', #87, #81, #148, .T. );
#74 = PRESENTATION_STYLE_ASSIGNMENT( ( #149 ) );
#75 = MANIFOLD_SOLID_BREP( '1', #150 );
#76 = PRESENTATION_STYLE_ASSIGNMENT( ( #151 ) );
#77 = VERTEX_POINT( '', #152 );
#78 = PRESENTATION_STYLE_ASSIGNMENT( ( #153 ) );
#79 = VERTEX_POINT( '', #154 );
#80 = PRESENTATION_STYLE_ASSIGNMENT( ( #155 ) );
#81 = VERTEX_POINT( '', #156 );
#82 = PRESENTATION_STYLE_ASSIGNMENT( ( #157 ) );
#83 = VERTEX_POINT( '', #158 );
#84 = PRESENTATION_STYLE_ASSIGNMENT( ( #159 ) );
#85 = ADVANCED_FACE( '', ( #160 ), #161, .F. );
#86 = PRESENTATION_STYLE_ASSIGNMENT( ( #162 ) );
#87 = VERTEX_POINT( '', #163 );
#88 = PRESENTATION_STYLE_ASSIGNMENT( ( #164 ) );
#89 = EDGE_CURVE( '', #61, #101, #165, .T. );
#90 = PRESENTATION_STYLE_ASSIGNMENT( ( #166 ) );
#91 = ADVANCED_FACE( '', ( #167 ), #168, .T. );
#92 = PRESENTATION_STYLE_ASSIGNMENT( ( #169 ) );
#93 = EDGE_CURVE( '', #67, #77, #170, .T. );
#94 = PRESENTATION_STYLE_ASSIGNMENT( ( #171 ) );
#95 = EDGE_CURVE( '', #79, #61, #172, .T. );
#96 = PRESENTATION_STYLE_ASSIGNMENT( ( #173 ) );
#97 = EDGE_CURVE( '', #77, #67, #174, .T. );
#98 = PRESENTATION_STYLE_ASSIGNMENT( ( #175 ) );
#99 = EDGE_CURVE( '', #101, #83, #176, .T. );
#100 = PRESENTATION_STYLE_ASSIGNMENT( ( #177 ) );
#101 = VERTEX_POINT( '', #178 );
#102 = PRESENTATION_STYLE_ASSIGNMENT( ( #179 ) );
#103 = ADVANCED_FACE( '', ( #180 ), #181, .T. );
#104 = PRODUCT( '1', '1', 'PART-1-DESC', ( #182 ) );
#105 = PRODUCT_DEFINITION( 'NONE', 'NONE', #183, #2 );
#106 = AXIS2_PLACEMENT_3D( '', #184, #185, #186 );
#109 = LENGTH_MEASURE_WITH_UNIT( LENGTH_MEASURE( 1.00000000000000 ), #187 );
#112 = DIMENSIONAL_EXPONENTS( 1.00000000000000, 0.000000000000000, 0.000000000000000, 0.000000000000000, 0.000000000000000, 0.000000000000000, 0.000000000000000 );
#114 = DIMENSIONAL_EXPONENTS( 0.000000000000000, 0.000000000000000, 0.000000000000000, 0.000000000000000, 0.000000000000000, 0.000000000000000, 0.000000000000000 );
#120 = CURVE_STYLE( '', #188, POSITIVE_LENGTH_MEASURE( 1.00000000000000E-006 ), #189 );
#121 = CIRCLE( '', #190, 70.0000000000000 );
#122 = SURFACE_STYLE_USAGE( .BOTH., #191 );
#123 = FACE_OUTER_BOUND( '', #192, .T. );
#124 = FACE_BOUND( '', #193, .T. );
#125 = PLANE( '', #194 );
#126 = SURFACE_STYLE_USAGE( .BOTH., #195 );
#127 = FACE_OUTER_BOUND( '', #196, .T. );
#128 = FACE_BOUND( '', #197, .T. );
#129 = PLANE( '', #198 );
#130 = CURVE_STYLE( '', #199, POSITIVE_LENGTH_MEASURE( 1.00000000000000E-006 ), #200 );
#131 = CIRCLE( '', #201, 57.3000000000000 );
#132 = SURFACE_STYLE_USAGE( .BOTH., #202 );
#133 = FACE_OUTER_BOUND( '', #203, .T. );
#134 = CYLINDRICAL_SURFACE( '', #204, 57.3000000000000 );
#135 = POINT_STYLE( ' ', #205, POSITIVE_LENGTH_MEASURE( 1.00000000000000E-006 ), #206 );
#136 = CARTESIAN_POINT( '', ( 5000.00000000000, 0.000000000000000, -57.3000000000000 ) );
#137 = CURVE_STYLE( '', #207, POSITIVE_LENGTH_MEASURE( 1.00000000000000E-006 ), #208 );
#138 = CIRCLE( '', #209, 57.3000000000000 );
#139 = CURVE_STYLE( '', #210, POSITIVE_LENGTH_MEASURE( 1.00000000000000E-006 ), #211 );
#140 = LINE( '', #212, #213 );
#141 = POINT_STYLE( ' ', #214, POSITIVE_LENGTH_MEASURE( 1.00000000000000E-006 ), #215 );
#142 = CARTESIAN_POINT( '', ( 0.000000000000000, 8.57224447675664E-015, 70.0000000000000 ) );
#143 = CURVE_STYLE( '', #216, POSITIVE_LENGTH_MEASURE( 1.00000000000000E-006 ), #217 );
#144 = LINE( '', #218, #219 );
#145 = CURVE_STYLE( '', #220, POSITIVE_LENGTH_MEASURE( 1.00000000000000E-006 ), #221 );
#146 = CIRCLE( '', #222, 57.3000000000000 );
#147 = CURVE_STYLE( '', #223, POSITIVE_LENGTH_MEASURE( 1.00000000000000E-006 ), #224 );
#148 = CIRCLE( '', #225, 70.0000000000000 );
#149 = SURFACE_STYLE_USAGE( .BOTH., #226 );
#150 = CLOSED_SHELL( '', ( #103, #85, #59, #91, #53, #55 ) );
#151 = POINT_STYLE( ' ', #227, POSITIVE_LENGTH_MEASURE( 1.00000000000000E-006 ), #228 );
#152 = CARTESIAN_POINT( '', ( 0.000000000000000, 0.000000000000000, -70.0000000000000 ) );
#153 = POINT_STYLE( ' ', #229, POSITIVE_LENGTH_MEASURE( 1.00000000000000E-006 ), #230 );
#154 = CARTESIAN_POINT( '', ( 0.000000000000000, 0.000000000000000, -57.3000000000000 ) );
#155 = POINT_STYLE( ' ', #231, POSITIVE_LENGTH_MEASURE( 1.00000000000000E-006 ), #232 );
#156 = CARTESIAN_POINT( '', ( 5000.00000000000, 0.000000000000000, -70.0000000000000 ) );
#157 = POINT_STYLE( ' ', #233, POSITIVE_LENGTH_MEASURE( 1.00000000000000E-006 ), #234 );
#158 = CARTESIAN_POINT( '', ( 0.000000000000000, 7.01699440740222E-015, 57.3000000000000 ) );
#159 = SURFACE_STYLE_USAGE( .BOTH., #235 );
#160 = FACE_OUTER_BOUND( '', #236, .T. );
#161 = CYLINDRICAL_SURFACE( '', #237, 57.3000000000000 );
#162 = POINT_STYLE( ' ', #238, POSITIVE_LENGTH_MEASURE( 1.00000000000000E-006 ), #239 );
#163 = CARTESIAN_POINT( '', ( 5000.00000000000, 8.57224447675664E-015, 70.0000000000000 ) );
#164 = CURVE_STYLE( '', #240, POSITIVE_LENGTH_MEASURE( 1.00000000000000E-006 ), #241 );
#165 = CIRCLE( '', #242, 57.3000000000000 );
#166 = SURFACE_STYLE_USAGE( .BOTH., #243 );
#167 = FACE_OUTER_BOUND( '', #244, .T. );
#168 = CYLINDRICAL_SURFACE( '', #245, 70.0000000000000 );
#169 = CURVE_STYLE( '', #246, POSITIVE_LENGTH_MEASURE( 1.00000000000000E-006 ), #247 );
#170 = CIRCLE( '', #248, 70.0000000000000 );
#171 = CURVE_STYLE( '', #249, POSITIVE_LENGTH_MEASURE( 1.00000000000000E-006 ), #250 );
#172 = LINE( '', #251, #252 );
#173 = CURVE_STYLE( '', #253, POSITIVE_LENGTH_MEASURE( 1.00000000000000E-006 ), #254 );
#174 = CIRCLE( '', #255, 70.0000000000000 );
#175 = CURVE_STYLE( '', #256, POSITIVE_LENGTH_MEASURE( 1.00000000000000E-006 ), #257 );
#176 = LINE( '', #258, #259 );
#177 = POINT_STYLE( ' ', #260, POSITIVE_LENGTH_MEASURE( 1.00000000000000E-006 ), #261 );
#178 = CARTESIAN_POINT( '', ( 5000.00000000000, 7.01699440740222E-015, 57.3000000000000 ) );
#179 = SURFACE_STYLE_USAGE( .BOTH., #262 );
#180 = FACE_OUTER_BOUND( '', #263, .T. );
#181 = CYLINDRICAL_SURFACE( '', #264, 70.0000000000000 );
#182 = PRODUCT_CONTEXT( '', #37, 'mechanical' );
#183 = PRODUCT_DEFINITION_FORMATION_WITH_SPECIFIED_SOURCE( ' ', 'NONE', #104, .NOT_KNOWN. );
#184 = CARTESIAN_POINT( '', ( 0.000000000000000, 0.000000000000000, 0.000000000000000 ) );
#185 = DIRECTION( '', ( 0.000000000000000, 0.000000000000000, 1.00000000000000 ) );
#186 = DIRECTION( '', ( 1.00000000000000, 0.000000000000000, 0.000000000000000 ) );
#187 =  ( NAMED_UNIT( #112 )LENGTH_UNIT(  )SI_UNIT( .MILLI., .METRE. ) );
#188 = DRAUGHTING_PRE_DEFINED_CURVE_FONT( 'continuous' );
#189 = COLOUR_RGB( '', 0.689999997615810, 0.689999997615810, 0.689999997615810 );
#190 = AXIS2_PLACEMENT_3D( '', #266, #267, #268 );
#191 = SURFACE_SIDE_STYLE( '', ( #269 ) );
#192 = EDGE_LOOP( '', ( #270, #271 ) );
#193 = EDGE_LOOP( '', ( #272, #273 ) );
#194 = AXIS2_PLACEMENT_3D( '', #274, #275, #276 );
#195 = SURFACE_SIDE_STYLE( '', ( #277 ) );
#196 = EDGE_LOOP( '', ( #278, #279 ) );
#197 = EDGE_LOOP( '', ( #280, #281 ) );
#198 = AXIS2_PLACEMENT_3D( '', #282, #283, #284 );
#199 = DRAUGHTING_PRE_DEFINED_CURVE_FONT( 'continuous' );
#200 = COLOUR_RGB( '', 0.689999997615810, 0.689999997615810, 0.689999997615810 );
#201 = AXIS2_PLACEMENT_3D( '', #285, #286, #287 );
#202 = SURFACE_SIDE_STYLE( '', ( #288 ) );
#203 = EDGE_LOOP( '', ( #289, #290, #291, #292 ) );
#204 = AXIS2_PLACEMENT_3D( '', #293, #294, #295 );
#205 = PRE_DEFINED_MARKER( '' );
#206 = COLOUR_RGB( '', 0.689999997615810, 0.689999997615810, 0.689999997615810 );
#207 = DRAUGHTING_PRE_DEFINED_CURVE_FONT( 'continuous' );
#208 = COLOUR_RGB( '', 0.689999997615810, 0.689999997615810, 0.689999997615810 );
#209 = AXIS2_PLACEMENT_3D( '', #296, #297, #298 );
#210 = DRAUGHTING_PRE_DEFINED_CURVE_FONT( 'continuous' );
#211 = COLOUR_RGB( '', 0.689999997615810, 0.689999997615810, 0.689999997615810 );
#212 = CARTESIAN_POINT( '', ( 0.000000000000000, -8.57224447675664E-015, -70.0000000000000 ) );
#213 = VECTOR( '', #299, 1.00000000000000 );
#214 = PRE_DEFINED_MARKER( '' );
#215 = COLOUR_RGB( '', 0.689999997615810, 0.689999997615810, 0.689999997615810 );
#216 = DRAUGHTING_PRE_DEFINED_CURVE_FONT( 'continuous' );
#217 = COLOUR_RGB( '', 0.689999997615810, 0.689999997615810, 0.689999997615810 );
#218 = CARTESIAN_POINT( '', ( 0.000000000000000, 8.57224447675664E-015, 70.0000000000000 ) );
#219 = VECTOR( '', #300, 1.00000000000000 );
#220 = DRAUGHTING_PRE_DEFINED_CURVE_FONT( 'continuous' );
#221 = COLOUR_RGB( '', 0.689999997615810, 0.689999997615810, 0.689999997615810 );
#222 = AXIS2_PLACEMENT_3D( '', #301, #302, #303 );
#223 = DRAUGHTING_PRE_DEFINED_CURVE_FONT( 'continuous' );
#224 = COLOUR_RGB( '', 0.689999997615810, 0.689999997615810, 0.689999997615810 );
#225 = AXIS2_PLACEMENT_3D( '', #304, #305, #306 );
#226 = SURFACE_SIDE_STYLE( '', ( #307 ) );
#227 = PRE_DEFINED_MARKER( '' );
#228 = COLOUR_RGB( '', 0.689999997615810, 0.689999997615810, 0.689999997615810 );
#229 = PRE_DEFINED_MARKER( '' );
#230 = COLOUR_RGB( '', 0.689999997615810, 0.689999997615810, 0.689999997615810 );
#231 = PRE_DEFINED_MARKER( '' );
#232 = COLOUR_RGB( '', 0.689999997615810, 0.689999997615810, 0.689999997615810 );
#233 = PRE_DEFINED_MARKER( '' );
#234 = COLOUR_RGB( '', 0.689999997615810, 0.689999997615810, 0.689999997615810 );
#235 = SURFACE_SIDE_STYLE( '', ( #308 ) );
#236 = EDGE_LOOP( '', ( #309, #310, #311, #312 ) );
#237 = AXIS2_PLACEMENT_3D( '', #313, #314, #315 );
#238 = PRE_DEFINED_MARKER( '' );
#239 = COLOUR_RGB( '', 0.689999997615810, 0.689999997615810, 0.689999997615810 );
#240 = DRAUGHTING_PRE_DEFINED_CURVE_FONT( 'continuous' );
#241 = COLOUR_RGB( '', 0.689999997615810, 0.689999997615810, 0.689999997615810 );
#242 = AXIS2_PLACEMENT_3D( '', #316, #317, #318 );
#243 = SURFACE_SIDE_STYLE( '', ( #319 ) );
#244 = EDGE_LOOP( '', ( #320, #321, #322, #323 ) );
#245 = AXIS2_PLACEMENT_3D( '', #324, #325, #326 );
#246 = DRAUGHTING_PRE_DEFINED_CURVE_FONT( 'continuous' );
#247 = COLOUR_RGB( '', 0.689999997615810, 0.689999997615810, 0.689999997615810 );
#248 = AXIS2_PLACEMENT_3D( '', #327, #328, #329 );
#249 = DRAUGHTING_PRE_DEFINED_CURVE_FONT( 'continuous' );
#250 = COLOUR_RGB( '', 0.689999997615810, 0.689999997615810, 0.689999997615810 );
#251 = CARTESIAN_POINT( '', ( 0.000000000000000, -7.01699440740222E-015, -57.3000000000000 ) );
#252 = VECTOR( '', #330, 1.00000000000000 );
#253 = DRAUGHTING_PRE_DEFINED_CURVE_FONT( 'continuous' );
#254 = COLOUR_RGB( '', 0.689999997615810, 0.689999997615810, 0.689999997615810 );
#255 = AXIS2_PLACEMENT_3D( '', #331, #332, #333 );
#256 = DRAUGHTING_PRE_DEFINED_CURVE_FONT( 'continuous' );
#257 = COLOUR_RGB( '', 0.689999997615810, 0.689999997615810, 0.689999997615810 );
#258 = CARTESIAN_POINT( '', ( 0.000000000000000, 7.01699440740222E-015, 57.3000000000000 ) );
#259 = VECTOR( '', #334, 1.00000000000000 );
#260 = PRE_DEFINED_MARKER( '' );
#261 = COLOUR_RGB( '', 0.689999997615810, 0.689999997615810, 0.689999997615810 );
#262 = SURFACE_SIDE_STYLE( '', ( #335 ) );
#263 = EDGE_LOOP( '', ( #336, #337, #338, #339 ) );
#264 = AXIS2_PLACEMENT_3D( '', #340, #341, #342 );
#266 = CARTESIAN_POINT( '', ( 5000.00000000000, 0.000000000000000, 0.000000000000000 ) );
#267 = DIRECTION( '', ( -1.00000000000000, 0.000000000000000, 0.000000000000000 ) );
#268 = DIRECTION( '', ( 0.000000000000000, 0.000000000000000, -1.00000000000000 ) );
#269 = SURFACE_STYLE_FILL_AREA( #343 );
#270 = ORIENTED_EDGE( '', *, *, #51, .F. );
#271 = ORIENTED_EDGE( '', *, *, #73, .F. );
#272 = ORIENTED_EDGE( '', *, *, #89, .F. );
#273 = ORIENTED_EDGE( '', *, *, #71, .F. );
#274 = CARTESIAN_POINT( '', ( 5000.00000000000, 0.000000000000000, 0.000000000000000 ) );
#275 = DIRECTION( '', ( 1.00000000000000, 0.000000000000000, 0.000000000000000 ) );
#276 = DIRECTION( '', ( 0.000000000000000, 0.000000000000000, -1.00000000000000 ) );
#277 = SURFACE_STYLE_FILL_AREA( #344 );
#278 = ORIENTED_EDGE( '', *, *, #97, .F. );
#279 = ORIENTED_EDGE( '', *, *, #93, .F. );
#280 = ORIENTED_EDGE( '', *, *, #63, .T. );
#281 = ORIENTED_EDGE( '', *, *, #57, .T. );
#282 = CARTESIAN_POINT( '', ( 0.000000000000000, 0.000000000000000, 0.000000000000000 ) );
#283 = DIRECTION( '', ( 1.00000000000000, 0.000000000000000, 0.000000000000000 ) );
#284 = DIRECTION( '', ( 0.000000000000000, 0.000000000000000, -1.00000000000000 ) );
#285 = CARTESIAN_POINT( '', ( 0.000000000000000, 0.000000000000000, 0.000000000000000 ) );
#286 = DIRECTION( '', ( 1.00000000000000, -0.000000000000000, 0.000000000000000 ) );
#287 = DIRECTION( '', ( 0.000000000000000, 0.000000000000000, -1.00000000000000 ) );
#288 = SURFACE_STYLE_FILL_AREA( #345 );
#289 = ORIENTED_EDGE( '', *, *, #95, .T. );
#290 = ORIENTED_EDGE( '', *, *, #89, .T. );
#291 = ORIENTED_EDGE( '', *, *, #99, .T. );
#292 = ORIENTED_EDGE( '', *, *, #63, .F. );
#293 = CARTESIAN_POINT( '', ( 0.000000000000000, 0.000000000000000, 0.000000000000000 ) );
#294 = DIRECTION( '', ( -1.00000000000000, -0.000000000000000, -0.000000000000000 ) );
#295 = DIRECTION( '', ( 0.000000000000000, 0.000000000000000, -1.00000000000000 ) );
#296 = CARTESIAN_POINT( '', ( 0.000000000000000, 0.000000000000000, 0.000000000000000 ) );
#297 = DIRECTION( '', ( 1.00000000000000, -0.000000000000000, 0.000000000000000 ) );
#298 = DIRECTION( '', ( 0.000000000000000, 0.000000000000000, -1.00000000000000 ) );
#299 = DIRECTION( '', ( 1.00000000000000, 0.000000000000000, 0.000000000000000 ) );
#300 = DIRECTION( '', ( -1.00000000000000, -0.000000000000000, -0.000000000000000 ) );
#301 = CARTESIAN_POINT( '', ( 5000.00000000000, 0.000000000000000, 0.000000000000000 ) );
#302 = DIRECTION( '', ( 1.00000000000000, 0.000000000000000, 0.000000000000000 ) );
#303 = DIRECTION( '', ( 0.000000000000000, 0.000000000000000, -1.00000000000000 ) );
#304 = CARTESIAN_POINT( '', ( 5000.00000000000, 0.000000000000000, 0.000000000000000 ) );
#305 = DIRECTION( '', ( -1.00000000000000, 0.000000000000000, 0.000000000000000 ) );
#306 = DIRECTION( '', ( 0.000000000000000, 0.000000000000000, -1.00000000000000 ) );
#307 = SURFACE_STYLE_FILL_AREA( #346 );
#308 = SURFACE_STYLE_FILL_AREA( #347 );
#309 = ORIENTED_EDGE( '', *, *, #95, .F. );
#310 = ORIENTED_EDGE( '', *, *, #57, .F. );
#311 = ORIENTED_EDGE( '', *, *, #99, .F. );
#312 = ORIENTED_EDGE( '', *, *, #71, .T. );
#313 = CARTESIAN_POINT( '', ( 0.000000000000000, 0.000000000000000, 0.000000000000000 ) );
#314 = DIRECTION( '', ( -1.00000000000000, -0.000000000000000, -0.000000000000000 ) );
#315 = DIRECTION( '', ( 0.000000000000000, 0.000000000000000, -1.00000000000000 ) );
#316 = CARTESIAN_POINT( '', ( 5000.00000000000, 0.000000000000000, 0.000000000000000 ) );
#317 = DIRECTION( '', ( 1.00000000000000, 0.000000000000000, 0.000000000000000 ) );
#318 = DIRECTION( '', ( 0.000000000000000, 0.000000000000000, -1.00000000000000 ) );
#319 = SURFACE_STYLE_FILL_AREA( #348 );
#320 = ORIENTED_EDGE( '', *, *, #65, .T. );
#321 = ORIENTED_EDGE( '', *, *, #51, .T. );
#322 = ORIENTED_EDGE( '', *, *, #69, .T. );
#323 = ORIENTED_EDGE( '', *, *, #93, .T. );
#324 = CARTESIAN_POINT( '', ( 0.000000000000000, 0.000000000000000, 0.000000000000000 ) );
#325 = DIRECTION( '', ( -1.00000000000000, -0.000000000000000, -0.000000000000000 ) );
#326 = DIRECTION( '', ( 0.000000000000000, 0.000000000000000, -1.00000000000000 ) );
#327 = CARTESIAN_POINT( '', ( 0.000000000000000, 0.000000000000000, 0.000000000000000 ) );
#328 = DIRECTION( '', ( 1.00000000000000, -0.000000000000000, 0.000000000000000 ) );
#329 = DIRECTION( '', ( 0.000000000000000, 0.000000000000000, -1.00000000000000 ) );
#330 = DIRECTION( '', ( 1.00000000000000, 0.000000000000000, 0.000000000000000 ) );
#331 = CARTESIAN_POINT( '', ( 0.000000000000000, 0.000000000000000, 0.000000000000000 ) );
#332 = DIRECTION( '', ( 1.00000000000000, -0.000000000000000, 0.000000000000000 ) );
#333 = DIRECTION( '', ( 0.000000000000000, 0.000000000000000, -1.00000000000000 ) );
#334 = DIRECTION( '', ( -1.00000000000000, 0.000000000000000, 0.000000000000000 ) );
#335 = SURFACE_STYLE_FILL_AREA( #349 );
#336 = ORIENTED_EDGE( '', *, *, #65, .F. );
#337 = ORIENTED_EDGE( '', *, *, #97, .T. );
#338 = ORIENTED_EDGE( '', *, *, #69, .F. );
#339 = ORIENTED_EDGE( '', *, *, #73, .T. );
#340 = CARTESIAN_POINT( '', ( 0.000000000000000, 0.000000000000000, 0.000000000000000 ) );
#341 = DIRECTION( '', ( -1.00000000000000, -0.000000000000000, -0.000000000000000 ) );
#342 = DIRECTION( '', ( 0.000000000000000, 0.000000000000000, -1.00000000000000 ) );
#343 = FILL_AREA_STYLE( '', ( #350 ) );
#344 = FILL_AREA_STYLE( '', ( #351 ) );
#345 = FILL_AREA_STYLE( '', ( #352 ) );
#346 = FILL_AREA_STYLE( '', ( #353 ) );
#347 = FILL_AREA_STYLE( '', ( #354 ) );
#348 = FILL_AREA_STYLE( '', ( #355 ) );
#349 = FILL_AREA_STYLE( '', ( #356 ) );
#350 = FILL_AREA_STYLE_COLOUR( '', #357 );
#351 = FILL_AREA_STYLE_COLOUR( '', #358 );
#352 = FILL_AREA_STYLE_COLOUR( '', #359 );
#353 = FILL_AREA_STYLE_COLOUR( '', #360 );
#354 = FILL_AREA_STYLE_COLOUR( '', #361 );
#355 = FILL_AREA_STYLE_COLOUR( '', #362 );
#356 = FILL_AREA_STYLE_COLOUR( '', #363 );
#357 = COLOUR_RGB( '', 0.689999997615810, 0.689999997615810, 0.689999997615810 );
#358 = COLOUR_RGB( '', 0.689999997615810, 0.689999997615810, 0.689999997615810 );
#359 = COLOUR_RGB( '', 0.689999997615810, 0.689999997615810, 0.689999997615810 );
#360 = COLOUR_RGB( '', 0.689999997615810, 0.689999997615810, 0.689999997615810 );
#361 = COLOUR_RGB( '', 0.689999997615810, 0.689999997615810, 0.689999997615810 );
#362 = COLOUR_RGB( '', 0.689999997615810, 0.689999997615810, 0.689999997615810 );
#363 = COLOUR_RGB( '', 0.689999997615810, 0.689999997615810, 0.689999997615810 );
ENDSEC;
END-ISO-10303-21;
