ISO-10303-21;
HEADER;
/* Generated by software containing ST-Developer
 * from STEP Tools, Inc. (www.steptools.com) 
 */

FILE_DESCRIPTION(
/* description */ (''),
/* implementation_level */ '2;1');

FILE_NAME(
/* name */ 'C:\\Users\\Gabriele\\Desktop\\catalogo\\TR40\\TR40075F.stp',

/* time_stamp */ '2016-10-17T15:42:57+02:00',
/* author */ ('Gabriele'),
/* organization */ (''),
/* preprocessor_version */ 'ST-DEVELOPER v16.5',
/* originating_system */ 'Autodesk Inventor 2017',
/* authorisation */ '');

FILE_SCHEMA (('AUTOMOTIVE_DESIGN { 1 0 10303 214 3 1 1 }'));
ENDSEC;

DATA;
#10=MECHANICAL_DESIGN_GEOMETRIC_PRESENTATION_REPRESENTATION('',(#13),#481);
#11=SHAPE_REPRESENTATION_RELATIONSHIP('SRR','None',#490,#12);
#12=ADVANCED_BREP_SHAPE_REPRESENTATION('',(#14),#480);
#13=STYLED_ITEM('',(#499),#14);
#14=MANIFOLD_SOLID_BREP('Solido1',#200);
#15=B_SPLINE_CURVE_WITH_KNOTS('',3,(#333,#334,#335,#336,#337,#338,#339,
#340,#341,#342,#343,#344,#345,#346,#347,#348,#349,#350,#351,#352,#353,#354,
#355,#356,#357,#358,#359,#360,#361,#362,#363,#364,#365,#366,#367,#368,#369,
#370,#371,#372,#373,#374,#375,#376,#377,#378,#379,#380,#381,#382,#383,#384,
#385,#386,#387,#388,#389,#390,#391,#392,#393,#394,#395,#396,#397,#398),
 .UNSPECIFIED.,.T.,.F.,(4,2,2,2,2,2,2,2,2,2,2,2,2,2,2,2,2,2,2,2,2,2,2,2,
2,2,2,2,2,2,2,2,4),(0.,0.462290106764722,0.924580213529444,1.38687032029417,
1.84916042705889,2.30689198775591,2.76462354845293,3.22235510914996,3.68008666984698,
4.137818230544,4.59554979124103,5.05328135193805,5.51101291263507,5.97330301939979,
6.43559312616452,6.89788323292924,7.36017333969396,7.82246344645868,8.2847535532234,
8.74704365998813,9.20933376675285,9.66706532744987,10.1247968881469,10.5825284488439,
11.0402600095409,11.497991570238,11.955723130935,12.413454691632,12.871186252329,
13.3334763590938,13.7957664658585,14.2580565726232,14.7203466793879),
 .UNSPECIFIED.);
#16=B_SPLINE_CURVE_WITH_KNOTS('',3,(#409,#410,#411,#412,#413,#414,#415,
#416,#417,#418,#419,#420,#421,#422,#423,#424,#425,#426,#427,#428,#429,#430,
#431,#432,#433,#434,#435,#436,#437,#438,#439,#440,#441,#442,#443,#444,#445,
#446,#447,#448,#449,#450,#451,#452,#453,#454,#455,#456,#457,#458,#459,#460,
#461,#462,#463,#464,#465,#466,#467,#468,#469,#470,#471,#472,#473,#474),
 .UNSPECIFIED.,.T.,.F.,(4,2,2,2,2,2,2,2,2,2,2,2,2,2,2,2,2,2,2,2,2,2,2,2,
2,2,2,2,2,2,2,2,4),(0.,0.604072256420443,1.20814451284089,1.81221676926133,
2.41628902568177,3.01266649305637,3.60904396043097,4.20542142780558,4.80179889518018,
5.39817636255478,5.99455382992938,6.59093129730399,7.18730876467859,7.79138102109903,
8.39545327751947,8.99952553393991,9.60359779036036,10.2076700467808,10.8117423032012,
11.4158145596217,12.0198868160421,12.6162642834167,13.2126417507913,13.8090192181659,
14.4053966855405,15.0017741529151,15.5981516202897,16.1945290876643,16.7909065550389,
17.3949788114594,17.9990510678798,18.6031233243003,19.2071955807207),
 .UNSPECIFIED.);
#17=PLANE('',#207);
#18=PLANE('',#214);
#19=PLANE('',#221);
#20=PLANE('',#228);
#21=PLANE('',#231);
#22=PLANE('',#232);
#23=CYLINDRICAL_SURFACE('',#205,37.5);
#24=CYLINDRICAL_SURFACE('',#212,37.5);
#25=CYLINDRICAL_SURFACE('',#219,25.);
#26=CYLINDRICAL_SURFACE('',#223,23.5);
#27=CYLINDRICAL_SURFACE('',#225,36.);
#28=CYLINDRICAL_SURFACE('',#229,30.5);
#29=CYLINDRICAL_SURFACE('',#230,44.5);
#30=FACE_BOUND('',#65,.T.);
#31=FACE_BOUND('',#67,.T.);
#32=FACE_BOUND('',#69,.T.);
#33=FACE_BOUND('',#71,.T.);
#34=FACE_BOUND('',#73,.T.);
#35=FACE_BOUND('',#75,.T.);
#36=FACE_BOUND('',#77,.T.);
#37=FACE_BOUND('',#79,.T.);
#38=FACE_BOUND('',#81,.T.);
#39=FACE_BOUND('',#83,.T.);
#40=FACE_BOUND('',#85,.T.);
#41=FACE_BOUND('',#86,.T.);
#42=FACE_BOUND('',#88,.T.);
#43=FACE_BOUND('',#90,.T.);
#44=FACE_BOUND('',#92,.T.);
#45=FACE_BOUND('',#93,.T.);
#46=FACE_BOUND('',#95,.T.);
#47=FACE_BOUND('',#97,.T.);
#48=FACE_OUTER_BOUND('',#64,.T.);
#49=FACE_OUTER_BOUND('',#66,.T.);
#50=FACE_OUTER_BOUND('',#68,.T.);
#51=FACE_OUTER_BOUND('',#70,.T.);
#52=FACE_OUTER_BOUND('',#72,.T.);
#53=FACE_OUTER_BOUND('',#74,.T.);
#54=FACE_OUTER_BOUND('',#76,.T.);
#55=FACE_OUTER_BOUND('',#78,.T.);
#56=FACE_OUTER_BOUND('',#80,.T.);
#57=FACE_OUTER_BOUND('',#82,.T.);
#58=FACE_OUTER_BOUND('',#84,.T.);
#59=FACE_OUTER_BOUND('',#87,.T.);
#60=FACE_OUTER_BOUND('',#89,.T.);
#61=FACE_OUTER_BOUND('',#91,.T.);
#62=FACE_OUTER_BOUND('',#94,.T.);
#63=FACE_OUTER_BOUND('',#96,.T.);
#64=EDGE_LOOP('',(#147));
#65=EDGE_LOOP('',(#148));
#66=EDGE_LOOP('',(#149));
#67=EDGE_LOOP('',(#150));
#68=EDGE_LOOP('',(#151));
#69=EDGE_LOOP('',(#152));
#70=EDGE_LOOP('',(#153));
#71=EDGE_LOOP('',(#154));
#72=EDGE_LOOP('',(#155));
#73=EDGE_LOOP('',(#156));
#74=EDGE_LOOP('',(#157));
#75=EDGE_LOOP('',(#158));
#76=EDGE_LOOP('',(#159));
#77=EDGE_LOOP('',(#160));
#78=EDGE_LOOP('',(#161));
#79=EDGE_LOOP('',(#162));
#80=EDGE_LOOP('',(#163));
#81=EDGE_LOOP('',(#164));
#82=EDGE_LOOP('',(#165));
#83=EDGE_LOOP('',(#166));
#84=EDGE_LOOP('',(#167));
#85=EDGE_LOOP('',(#168));
#86=EDGE_LOOP('',(#169));
#87=EDGE_LOOP('',(#170));
#88=EDGE_LOOP('',(#171));
#89=EDGE_LOOP('',(#172));
#90=EDGE_LOOP('',(#173));
#91=EDGE_LOOP('',(#174));
#92=EDGE_LOOP('',(#175));
#93=EDGE_LOOP('',(#176));
#94=EDGE_LOOP('',(#177));
#95=EDGE_LOOP('',(#178));
#96=EDGE_LOOP('',(#179));
#97=EDGE_LOOP('',(#180));
#98=CIRCLE('',#203,37.5);
#99=CIRCLE('',#204,38.);
#100=CIRCLE('',#206,37.5);
#101=CIRCLE('',#208,44.5);
#102=CIRCLE('',#210,37.5);
#103=CIRCLE('',#211,38.);
#104=CIRCLE('',#213,37.5);
#105=CIRCLE('',#215,44.5);
#106=CIRCLE('',#217,25.);
#107=CIRCLE('',#218,25.5);
#108=CIRCLE('',#220,25.);
#109=CIRCLE('',#222,30.5);
#110=CIRCLE('',#224,23.5);
#111=CIRCLE('',#226,36.);
#112=CIRCLE('',#227,36.);
#113=VERTEX_POINT('',#299);
#114=VERTEX_POINT('',#301);
#115=VERTEX_POINT('',#304);
#116=VERTEX_POINT('',#307);
#117=VERTEX_POINT('',#310);
#118=VERTEX_POINT('',#312);
#119=VERTEX_POINT('',#315);
#120=VERTEX_POINT('',#318);
#121=VERTEX_POINT('',#321);
#122=VERTEX_POINT('',#323);
#123=VERTEX_POINT('',#326);
#124=VERTEX_POINT('',#329);
#125=VERTEX_POINT('',#332);
#126=VERTEX_POINT('',#399);
#127=VERTEX_POINT('',#402);
#128=VERTEX_POINT('',#404);
#129=VERTEX_POINT('',#408);
#130=EDGE_CURVE('',#113,#113,#98,.T.);
#131=EDGE_CURVE('',#114,#114,#99,.T.);
#132=EDGE_CURVE('',#115,#115,#100,.T.);
#133=EDGE_CURVE('',#116,#116,#101,.T.);
#134=EDGE_CURVE('',#117,#117,#102,.T.);
#135=EDGE_CURVE('',#118,#118,#103,.T.);
#136=EDGE_CURVE('',#119,#119,#104,.T.);
#137=EDGE_CURVE('',#120,#120,#105,.T.);
#138=EDGE_CURVE('',#121,#121,#106,.T.);
#139=EDGE_CURVE('',#122,#122,#107,.T.);
#140=EDGE_CURVE('',#123,#123,#108,.T.);
#141=EDGE_CURVE('',#124,#124,#109,.T.);
#142=EDGE_CURVE('',#125,#125,#15,.T.);
#143=EDGE_CURVE('',#126,#126,#110,.T.);
#144=EDGE_CURVE('',#127,#127,#111,.T.);
#145=EDGE_CURVE('',#128,#128,#112,.T.);
#146=EDGE_CURVE('',#129,#129,#16,.T.);
#147=ORIENTED_EDGE('',*,*,#130,.T.);
#148=ORIENTED_EDGE('',*,*,#131,.T.);
#149=ORIENTED_EDGE('',*,*,#132,.T.);
#150=ORIENTED_EDGE('',*,*,#130,.F.);
#151=ORIENTED_EDGE('',*,*,#133,.T.);
#152=ORIENTED_EDGE('',*,*,#131,.F.);
#153=ORIENTED_EDGE('',*,*,#134,.T.);
#154=ORIENTED_EDGE('',*,*,#135,.T.);
#155=ORIENTED_EDGE('',*,*,#136,.F.);
#156=ORIENTED_EDGE('',*,*,#134,.F.);
#157=ORIENTED_EDGE('',*,*,#137,.T.);
#158=ORIENTED_EDGE('',*,*,#135,.F.);
#159=ORIENTED_EDGE('',*,*,#138,.T.);
#160=ORIENTED_EDGE('',*,*,#139,.T.);
#161=ORIENTED_EDGE('',*,*,#140,.T.);
#162=ORIENTED_EDGE('',*,*,#138,.F.);
#163=ORIENTED_EDGE('',*,*,#141,.F.);
#164=ORIENTED_EDGE('',*,*,#139,.F.);
#165=ORIENTED_EDGE('',*,*,#142,.F.);
#166=ORIENTED_EDGE('',*,*,#143,.F.);
#167=ORIENTED_EDGE('',*,*,#144,.F.);
#168=ORIENTED_EDGE('',*,*,#142,.T.);
#169=ORIENTED_EDGE('',*,*,#145,.F.);
#170=ORIENTED_EDGE('',*,*,#140,.F.);
#171=ORIENTED_EDGE('',*,*,#143,.T.);
#172=ORIENTED_EDGE('',*,*,#141,.T.);
#173=ORIENTED_EDGE('',*,*,#146,.F.);
#174=ORIENTED_EDGE('',*,*,#133,.F.);
#175=ORIENTED_EDGE('',*,*,#137,.F.);
#176=ORIENTED_EDGE('',*,*,#146,.T.);
#177=ORIENTED_EDGE('',*,*,#136,.T.);
#178=ORIENTED_EDGE('',*,*,#145,.T.);
#179=ORIENTED_EDGE('',*,*,#132,.F.);
#180=ORIENTED_EDGE('',*,*,#144,.T.);
#181=TOROIDAL_SURFACE('',#202,38.,0.5);
#182=TOROIDAL_SURFACE('',#209,38.,0.5);
#183=TOROIDAL_SURFACE('',#216,25.5,0.5);
#184=ADVANCED_FACE('',(#48,#30),#181,.T.);
#185=ADVANCED_FACE('',(#49,#31),#23,.F.);
#186=ADVANCED_FACE('',(#50,#32),#17,.T.);
#187=ADVANCED_FACE('',(#51,#33),#182,.T.);
#188=ADVANCED_FACE('',(#52,#34),#24,.F.);
#189=ADVANCED_FACE('',(#53,#35),#18,.F.);
#190=ADVANCED_FACE('',(#54,#36),#183,.T.);
#191=ADVANCED_FACE('',(#55,#37),#25,.F.);
#192=ADVANCED_FACE('',(#56,#38),#19,.T.);
#193=ADVANCED_FACE('',(#57,#39),#26,.F.);
#194=ADVANCED_FACE('',(#58,#40,#41),#27,.F.);
#195=ADVANCED_FACE('',(#59,#42),#20,.T.);
#196=ADVANCED_FACE('',(#60,#43),#28,.T.);
#197=ADVANCED_FACE('',(#61,#44,#45),#29,.T.);
#198=ADVANCED_FACE('',(#62,#46),#21,.F.);
#199=ADVANCED_FACE('',(#63,#47),#22,.T.);
#200=CLOSED_SHELL('',(#184,#185,#186,#187,#188,#189,#190,#191,#192,#193,
#194,#195,#196,#197,#198,#199));
#201=AXIS2_PLACEMENT_3D('placement',#297,#233,#234);
#202=AXIS2_PLACEMENT_3D('',#298,#235,#236);
#203=AXIS2_PLACEMENT_3D('',#300,#237,#238);
#204=AXIS2_PLACEMENT_3D('',#302,#239,#240);
#205=AXIS2_PLACEMENT_3D('',#303,#241,#242);
#206=AXIS2_PLACEMENT_3D('',#305,#243,#244);
#207=AXIS2_PLACEMENT_3D('',#306,#245,#246);
#208=AXIS2_PLACEMENT_3D('',#308,#247,#248);
#209=AXIS2_PLACEMENT_3D('',#309,#249,#250);
#210=AXIS2_PLACEMENT_3D('',#311,#251,#252);
#211=AXIS2_PLACEMENT_3D('',#313,#253,#254);
#212=AXIS2_PLACEMENT_3D('',#314,#255,#256);
#213=AXIS2_PLACEMENT_3D('',#316,#257,#258);
#214=AXIS2_PLACEMENT_3D('',#317,#259,#260);
#215=AXIS2_PLACEMENT_3D('',#319,#261,#262);
#216=AXIS2_PLACEMENT_3D('',#320,#263,#264);
#217=AXIS2_PLACEMENT_3D('',#322,#265,#266);
#218=AXIS2_PLACEMENT_3D('',#324,#267,#268);
#219=AXIS2_PLACEMENT_3D('',#325,#269,#270);
#220=AXIS2_PLACEMENT_3D('',#327,#271,#272);
#221=AXIS2_PLACEMENT_3D('',#328,#273,#274);
#222=AXIS2_PLACEMENT_3D('',#330,#275,#276);
#223=AXIS2_PLACEMENT_3D('',#331,#277,#278);
#224=AXIS2_PLACEMENT_3D('',#400,#279,#280);
#225=AXIS2_PLACEMENT_3D('',#401,#281,#282);
#226=AXIS2_PLACEMENT_3D('',#403,#283,#284);
#227=AXIS2_PLACEMENT_3D('',#405,#285,#286);
#228=AXIS2_PLACEMENT_3D('',#406,#287,#288);
#229=AXIS2_PLACEMENT_3D('',#407,#289,#290);
#230=AXIS2_PLACEMENT_3D('',#475,#291,#292);
#231=AXIS2_PLACEMENT_3D('',#476,#293,#294);
#232=AXIS2_PLACEMENT_3D('',#477,#295,#296);
#233=DIRECTION('axis',(0.,0.,1.));
#234=DIRECTION('refdir',(1.,0.,0.));
#235=DIRECTION('center_axis',(0.,0.,-1.));
#236=DIRECTION('ref_axis',(-1.,0.,0.));
#237=DIRECTION('center_axis',(0.,0.,-1.));
#238=DIRECTION('ref_axis',(-1.,0.,0.));
#239=DIRECTION('center_axis',(0.,0.,1.));
#240=DIRECTION('ref_axis',(-1.,0.,0.));
#241=DIRECTION('center_axis',(0.,0.,-1.));
#242=DIRECTION('ref_axis',(-1.,0.,0.));
#243=DIRECTION('center_axis',(0.,0.,-1.));
#244=DIRECTION('ref_axis',(-1.,0.,0.));
#245=DIRECTION('center_axis',(0.,0.,1.));
#246=DIRECTION('ref_axis',(1.,0.,0.));
#247=DIRECTION('center_axis',(0.,0.,1.));
#248=DIRECTION('ref_axis',(-1.,0.,0.));
#249=DIRECTION('center_axis',(0.,0.,1.));
#250=DIRECTION('ref_axis',(1.,0.,0.));
#251=DIRECTION('center_axis',(0.,0.,1.));
#252=DIRECTION('ref_axis',(-1.,0.,0.));
#253=DIRECTION('center_axis',(0.,0.,-1.));
#254=DIRECTION('ref_axis',(-1.,0.,0.));
#255=DIRECTION('center_axis',(0.,0.,-1.));
#256=DIRECTION('ref_axis',(-1.,0.,0.));
#257=DIRECTION('center_axis',(0.,0.,-1.));
#258=DIRECTION('ref_axis',(-1.,0.,0.));
#259=DIRECTION('center_axis',(0.,0.,1.));
#260=DIRECTION('ref_axis',(1.,0.,0.));
#261=DIRECTION('center_axis',(0.,0.,-1.));
#262=DIRECTION('ref_axis',(-1.,0.,0.));
#263=DIRECTION('center_axis',(0.,-1.,0.));
#264=DIRECTION('ref_axis',(0.,0.,-1.));
#265=DIRECTION('center_axis',(0.,-1.,0.));
#266=DIRECTION('ref_axis',(-1.,0.,0.));
#267=DIRECTION('center_axis',(0.,1.,0.));
#268=DIRECTION('ref_axis',(-1.,0.,0.));
#269=DIRECTION('center_axis',(0.,-1.,0.));
#270=DIRECTION('ref_axis',(-1.,0.,0.));
#271=DIRECTION('center_axis',(0.,-1.,0.));
#272=DIRECTION('ref_axis',(-1.,0.,0.));
#273=DIRECTION('center_axis',(0.,1.,0.));
#274=DIRECTION('ref_axis',(0.,0.,1.));
#275=DIRECTION('center_axis',(0.,-1.,0.));
#276=DIRECTION('ref_axis',(1.,0.,0.));
#277=DIRECTION('center_axis',(0.,-1.,0.));
#278=DIRECTION('ref_axis',(-1.,0.,0.));
#279=DIRECTION('center_axis',(0.,-1.,0.));
#280=DIRECTION('ref_axis',(-1.,0.,0.));
#281=DIRECTION('center_axis',(0.,0.,1.));
#282=DIRECTION('ref_axis',(1.,0.,0.));
#283=DIRECTION('center_axis',(0.,0.,-1.));
#284=DIRECTION('ref_axis',(1.,0.,0.));
#285=DIRECTION('center_axis',(0.,0.,1.));
#286=DIRECTION('ref_axis',(1.,0.,0.));
#287=DIRECTION('center_axis',(0.,1.,0.));
#288=DIRECTION('ref_axis',(0.,0.,1.));
#289=DIRECTION('center_axis',(0.,-1.,0.));
#290=DIRECTION('ref_axis',(1.,0.,0.));
#291=DIRECTION('center_axis',(0.,0.,1.));
#292=DIRECTION('ref_axis',(-1.,0.,0.));
#293=DIRECTION('center_axis',(0.,0.,1.));
#294=DIRECTION('ref_axis',(1.,0.,0.));
#295=DIRECTION('center_axis',(0.,0.,1.));
#296=DIRECTION('ref_axis',(1.,0.,0.));
#297=CARTESIAN_POINT('',(0.,0.,0.));
#298=CARTESIAN_POINT('Origin',(0.,0.,82.5));
#299=CARTESIAN_POINT('',(37.5,-4.59242549680258E-15,82.5));
#300=CARTESIAN_POINT('Origin',(0.,0.,82.5));
#301=CARTESIAN_POINT('',(38.,4.65365783675994E-15,83.));
#302=CARTESIAN_POINT('Origin',(0.,0.,83.));
#303=CARTESIAN_POINT('Origin',(0.,0.,83.));
#304=CARTESIAN_POINT('',(37.5,4.59242549680258E-15,39.));
#305=CARTESIAN_POINT('Origin',(0.,0.,39.));
#306=CARTESIAN_POINT('Origin',(-4.44595297693156E-15,0.,83.));
#307=CARTESIAN_POINT('',(44.5,5.44967825620572E-15,83.));
#308=CARTESIAN_POINT('Origin',(0.,0.,83.));
#309=CARTESIAN_POINT('Origin',(0.,0.,-82.5));
#310=CARTESIAN_POINT('',(37.5,4.59242549680258E-15,-82.5));
#311=CARTESIAN_POINT('Origin',(0.,0.,-82.5));
#312=CARTESIAN_POINT('',(38.,-4.65365783675994E-15,-83.));
#313=CARTESIAN_POINT('Origin',(0.,0.,-83.));
#314=CARTESIAN_POINT('Origin',(0.,0.,-83.));
#315=CARTESIAN_POINT('',(37.5,4.59242549680258E-15,-39.));
#316=CARTESIAN_POINT('Origin',(0.,0.,-39.));
#317=CARTESIAN_POINT('Origin',(-4.44595297693156E-15,0.,-83.));
#318=CARTESIAN_POINT('',(44.5,5.44967825620572E-15,-83.));
#319=CARTESIAN_POINT('Origin',(0.,0.,-83.));
#320=CARTESIAN_POINT('Origin',(0.,69.5,0.));
#321=CARTESIAN_POINT('',(25.,69.5,3.06161699786838E-15));
#322=CARTESIAN_POINT('Origin',(0.,69.5,0.));
#323=CARTESIAN_POINT('',(25.5,70.,-3.12284933782575E-15));
#324=CARTESIAN_POINT('Origin',(0.,70.,0.));
#325=CARTESIAN_POINT('Origin',(0.,70.,0.));
#326=CARTESIAN_POINT('',(25.,39.,-3.06161699786838E-15));
#327=CARTESIAN_POINT('Origin',(0.,39.,0.));
#328=CARTESIAN_POINT('Origin',(3.11264394783286E-16,70.,0.));
#329=CARTESIAN_POINT('',(-30.5,70.,3.73517273739943E-15));
#330=CARTESIAN_POINT('Origin',(0.,70.,0.));
#331=CARTESIAN_POINT('Origin',(0.,39.,0.));
#332=CARTESIAN_POINT('',(23.5,27.2717802865893,-2.77555756156289E-16));
#333=CARTESIAN_POINT('Ctrl Pts',(23.5,27.2717802865893,-2.77555756156289E-16));
#334=CARTESIAN_POINT('Ctrl Pts',(23.5,27.2717802865893,-1.54096702254907));
#335=CARTESIAN_POINT('Ctrl Pts',(23.3463220355675,27.4064251820891,-3.1081154774443));
#336=CARTESIAN_POINT('Ctrl Pts',(22.7260180632932,27.9229474676611,-6.18378840792354));
#337=CARTESIAN_POINT('Ctrl Pts',(22.2597562164329,28.3032897511106,-7.69264391922561));
#338=CARTESIAN_POINT('Ctrl Pts',(21.0504666900799,29.2138780494391,-10.5617964115897));
#339=CARTESIAN_POINT('Ctrl Pts',(20.3064237669296,29.7435021518769,-11.9251418205577));
#340=CARTESIAN_POINT('Ctrl Pts',(18.6012135079912,30.8386384646711,-14.4414234029065));
#341=CARTESIAN_POINT('Ctrl Pts',(17.6396175334518,31.4033874790187,-15.594401182316));
#342=CARTESIAN_POINT('Ctrl Pts',(15.6044849076852,32.4623293187623,-17.6295338080825));
#343=CARTESIAN_POINT('Ctrl Pts',(14.4568831022137,32.9974021450571,-18.5893101175769));
#344=CARTESIAN_POINT('Ctrl Pts',(11.9397059143612,33.9893136147862,-20.2979639999289));
#345=CARTESIAN_POINT('Ctrl Pts',(10.5699758588699,34.4455733949699,-21.0469496981363));
#346=CARTESIAN_POINT('Ctrl Pts',(7.68617980063964,35.2014852689519,-22.2625501897151));
#347=CARTESIAN_POINT('Ctrl Pts',(6.16907154023353,35.5014687492049,-22.7301595386146));
#348=CARTESIAN_POINT('Ctrl Pts',(3.08890758449349,35.9008408949944,-23.3490095351233));
#349=CARTESIAN_POINT('Ctrl Pts',(1.52577186899008,36.,-23.5));
#350=CARTESIAN_POINT('Ctrl Pts',(-1.52577186899008,36.,-23.5));
#351=CARTESIAN_POINT('Ctrl Pts',(-3.08890758449349,35.9008408949944,-23.3490095351233));
#352=CARTESIAN_POINT('Ctrl Pts',(-6.16907154023354,35.5014687492049,-22.7301595386146));
#353=CARTESIAN_POINT('Ctrl Pts',(-7.68617980063965,35.2014852689519,-22.2625501897151));
#354=CARTESIAN_POINT('Ctrl Pts',(-10.5699758588699,34.4455733949699,-21.0469496981363));
#355=CARTESIAN_POINT('Ctrl Pts',(-11.9397059143612,33.9893136147862,-20.2979639999289));
#356=CARTESIAN_POINT('Ctrl Pts',(-14.4568831022137,32.9974021450571,-18.5893101175769));
#357=CARTESIAN_POINT('Ctrl Pts',(-15.6044849076852,32.4623293187623,-17.6295338080825));
#358=CARTESIAN_POINT('Ctrl Pts',(-17.6396175334518,31.4033874790187,-15.594401182316));
#359=CARTESIAN_POINT('Ctrl Pts',(-18.6012135079912,30.838638464671,-14.4414234029065));
#360=CARTESIAN_POINT('Ctrl Pts',(-20.3064237669296,29.7435021518769,-11.9251418205577));
#361=CARTESIAN_POINT('Ctrl Pts',(-21.0504666900799,29.2138780494391,-10.5617964115897));
#362=CARTESIAN_POINT('Ctrl Pts',(-22.2597562164329,28.3032897511106,-7.69264391922561));
#363=CARTESIAN_POINT('Ctrl Pts',(-22.7260180632932,27.9229474676611,-6.18378840792354));
#364=CARTESIAN_POINT('Ctrl Pts',(-23.3463220355675,27.4064251820891,-3.1081154774443));
#365=CARTESIAN_POINT('Ctrl Pts',(-23.5,27.2717802865893,-1.54096702254907));
#366=CARTESIAN_POINT('Ctrl Pts',(-23.5,27.2717802865893,1.54096702254907));
#367=CARTESIAN_POINT('Ctrl Pts',(-23.3463220355675,27.4064251820891,3.1081154774443));
#368=CARTESIAN_POINT('Ctrl Pts',(-22.7260180632932,27.9229474676611,6.18378840792354));
#369=CARTESIAN_POINT('Ctrl Pts',(-22.2597562164329,28.3032897511106,7.69264391922561));
#370=CARTESIAN_POINT('Ctrl Pts',(-21.0504666900799,29.2138780494391,10.5617964115897));
#371=CARTESIAN_POINT('Ctrl Pts',(-20.3064237669296,29.7435021518769,11.9251418205577));
#372=CARTESIAN_POINT('Ctrl Pts',(-18.6012135079912,30.8386384646711,14.4414234029065));
#373=CARTESIAN_POINT('Ctrl Pts',(-17.6396175334518,31.4033874790187,15.594401182316));
#374=CARTESIAN_POINT('Ctrl Pts',(-15.6044849076852,32.4623293187623,17.6295338080825));
#375=CARTESIAN_POINT('Ctrl Pts',(-14.4568831022137,32.9974021450571,18.5893101175769));
#376=CARTESIAN_POINT('Ctrl Pts',(-11.9397059143612,33.9893136147862,20.2979639999289));
#377=CARTESIAN_POINT('Ctrl Pts',(-10.5699758588699,34.4455733949699,21.0469496981363));
#378=CARTESIAN_POINT('Ctrl Pts',(-7.68617980063966,35.2014852689519,22.2625501897151));
#379=CARTESIAN_POINT('Ctrl Pts',(-6.16907154023355,35.5014687492049,22.7301595386146));
#380=CARTESIAN_POINT('Ctrl Pts',(-3.08890758449349,35.9008408949944,23.3490095351233));
#381=CARTESIAN_POINT('Ctrl Pts',(-1.52577186899008,36.,23.5));
#382=CARTESIAN_POINT('Ctrl Pts',(1.52577186899008,36.,23.5));
#383=CARTESIAN_POINT('Ctrl Pts',(3.08890758449349,35.9008408949944,23.3490095351233));
#384=CARTESIAN_POINT('Ctrl Pts',(6.16907154023354,35.5014687492049,22.7301595386146));
#385=CARTESIAN_POINT('Ctrl Pts',(7.68617980063965,35.2014852689519,22.2625501897151));
#386=CARTESIAN_POINT('Ctrl Pts',(10.5699758588699,34.4455733949699,21.0469496981363));
#387=CARTESIAN_POINT('Ctrl Pts',(11.9397059143612,33.9893136147862,20.2979639999289));
#388=CARTESIAN_POINT('Ctrl Pts',(14.4568831022137,32.9974021450571,18.5893101175769));
#389=CARTESIAN_POINT('Ctrl Pts',(15.6044849076852,32.4623293187623,17.6295338080825));
#390=CARTESIAN_POINT('Ctrl Pts',(17.6396175334518,31.4033874790187,15.594401182316));
#391=CARTESIAN_POINT('Ctrl Pts',(18.6012135079912,30.838638464671,14.4414234029065));
#392=CARTESIAN_POINT('Ctrl Pts',(20.3064237669296,29.7435021518769,11.9251418205577));
#393=CARTESIAN_POINT('Ctrl Pts',(21.0504666900799,29.2138780494391,10.5617964115897));
#394=CARTESIAN_POINT('Ctrl Pts',(22.2597562164329,28.3032897511106,7.69264391922561));
#395=CARTESIAN_POINT('Ctrl Pts',(22.7260180632932,27.922947467661,6.18378840792354));
#396=CARTESIAN_POINT('Ctrl Pts',(23.3463220355675,27.4064251820891,3.10811547744431));
#397=CARTESIAN_POINT('Ctrl Pts',(23.5,27.2717802865893,1.54096702254908));
#398=CARTESIAN_POINT('Ctrl Pts',(23.5,27.2717802865893,2.77555756156289E-16));
#399=CARTESIAN_POINT('',(23.5,39.,-2.87791997799628E-15));
#400=CARTESIAN_POINT('Origin',(0.,39.,0.));
#401=CARTESIAN_POINT('Origin',(0.,0.,-39.));
#402=CARTESIAN_POINT('',(-36.,4.40872847693047E-15,39.));
#403=CARTESIAN_POINT('Origin',(0.,0.,39.));
#404=CARTESIAN_POINT('',(-36.,4.40872847693047E-15,-39.));
#405=CARTESIAN_POINT('Origin',(0.,0.,-39.));
#406=CARTESIAN_POINT('Origin',(-1.43937264275587E-15,39.,0.));
#407=CARTESIAN_POINT('Origin',(0.,70.,0.));
#408=CARTESIAN_POINT('',(30.5,32.4037034920393,0.));
#409=CARTESIAN_POINT('Ctrl Pts',(30.5,32.4037034920393,0.));
#410=CARTESIAN_POINT('Ctrl Pts',(30.5,32.4037034920393,2.01357418806814));
#411=CARTESIAN_POINT('Ctrl Pts',(30.2980032721112,32.5972283636735,4.05432777985564));
#412=CARTESIAN_POINT('Ctrl Pts',(29.4888394597981,33.3310162371799,8.05077181287611));
#413=CARTESIAN_POINT('Ctrl Pts',(28.8821704400065,33.8687879823852,10.0070200946261));
#414=CARTESIAN_POINT('Ctrl Pts',(27.3124035556107,35.1469338023173,13.7241799057105));
#415=CARTESIAN_POINT('Ctrl Pts',(26.3479534084718,35.8864201359238,15.4890397290699));
#416=CARTESIAN_POINT('Ctrl Pts',(24.1382926548032,37.4084566184473,18.7474752576874));
#417=CARTESIAN_POINT('Ctrl Pts',(22.8924559817279,38.1900832924532,20.2410576706515));
#418=CARTESIAN_POINT('Ctrl Pts',(20.2579446824811,39.6497734342488,22.8755689698983));
#419=CARTESIAN_POINT('Ctrl Pts',(18.7735576082928,40.3846781037292,24.1181677218073));
#420=CARTESIAN_POINT('Ctrl Pts',(15.5142277035617,41.7453881230076,26.3332720832981));
#421=CARTESIAN_POINT('Ctrl Pts',(13.7390637022765,42.3704597744958,27.3059028930761));
#422=CARTESIAN_POINT('Ctrl Pts',(9.99754540202481,43.4058387480543,28.8863865088488));
#423=CARTESIAN_POINT('Ctrl Pts',(8.02715513039848,43.816653949896,29.4955437094709));
#424=CARTESIAN_POINT('Ctrl Pts',(4.0223998529048,44.3638893955855,30.3025183385951));
#425=CARTESIAN_POINT('Ctrl Pts',(1.98792489124867,44.5,30.5));
#426=CARTESIAN_POINT('Ctrl Pts',(-1.98792489124867,44.5,30.5));
#427=CARTESIAN_POINT('Ctrl Pts',(-4.02239985290479,44.3638893955855,30.3025183385951));
#428=CARTESIAN_POINT('Ctrl Pts',(-8.02715513039848,43.816653949896,29.4955437094709));
#429=CARTESIAN_POINT('Ctrl Pts',(-9.99754540202481,43.4058387480543,28.8863865088488));
#430=CARTESIAN_POINT('Ctrl Pts',(-13.7390637022765,42.3704597744958,27.3059028930761));
#431=CARTESIAN_POINT('Ctrl Pts',(-15.5142277035617,41.7453881230076,26.3332720832981));
#432=CARTESIAN_POINT('Ctrl Pts',(-18.7735576082928,40.3846781037292,24.1181677218073));
#433=CARTESIAN_POINT('Ctrl Pts',(-20.2579446824811,39.6497734342488,22.8755689698983));
#434=CARTESIAN_POINT('Ctrl Pts',(-22.8924559817279,38.1900832924532,20.2410576706515));
#435=CARTESIAN_POINT('Ctrl Pts',(-24.1382926548032,37.4084566184473,18.7474752576874));
#436=CARTESIAN_POINT('Ctrl Pts',(-26.3479534084718,35.8864201359238,15.4890397290699));
#437=CARTESIAN_POINT('Ctrl Pts',(-27.3124035556107,35.1469338023173,13.7241799057105));
#438=CARTESIAN_POINT('Ctrl Pts',(-28.8821704400065,33.8687879823852,10.0070200946261));
#439=CARTESIAN_POINT('Ctrl Pts',(-29.4888394597981,33.3310162371799,8.05077181287611));
#440=CARTESIAN_POINT('Ctrl Pts',(-30.2980032721112,32.5972283636735,4.05432777985564));
#441=CARTESIAN_POINT('Ctrl Pts',(-30.5,32.4037034920393,2.01357418806814));
#442=CARTESIAN_POINT('Ctrl Pts',(-30.5,32.4037034920393,-2.01357418806814));
#443=CARTESIAN_POINT('Ctrl Pts',(-30.2980032721112,32.5972283636735,-4.05432777985564));
#444=CARTESIAN_POINT('Ctrl Pts',(-29.4888394597981,33.3310162371799,-8.05077181287611));
#445=CARTESIAN_POINT('Ctrl Pts',(-28.8821704400065,33.8687879823852,-10.0070200946261));
#446=CARTESIAN_POINT('Ctrl Pts',(-27.3124035556107,35.1469338023173,-13.7241799057105));
#447=CARTESIAN_POINT('Ctrl Pts',(-26.3479534084718,35.8864201359238,-15.4890397290699));
#448=CARTESIAN_POINT('Ctrl Pts',(-24.1382926548032,37.4084566184473,-18.7474752576874));
#449=CARTESIAN_POINT('Ctrl Pts',(-22.8924559817279,38.1900832924532,-20.2410576706515));
#450=CARTESIAN_POINT('Ctrl Pts',(-20.2579446824811,39.6497734342488,-22.8755689698983));
#451=CARTESIAN_POINT('Ctrl Pts',(-18.7735576082928,40.3846781037292,-24.1181677218073));
#452=CARTESIAN_POINT('Ctrl Pts',(-15.5142277035617,41.7453881230076,-26.3332720832981));
#453=CARTESIAN_POINT('Ctrl Pts',(-13.7390637022765,42.3704597744958,-27.3059028930761));
#454=CARTESIAN_POINT('Ctrl Pts',(-9.99754540202481,43.4058387480543,-28.8863865088488));
#455=CARTESIAN_POINT('Ctrl Pts',(-8.02715513039849,43.816653949896,-29.4955437094709));
#456=CARTESIAN_POINT('Ctrl Pts',(-4.02239985290481,44.3638893955855,-30.3025183385951));
#457=CARTESIAN_POINT('Ctrl Pts',(-1.98792489124868,44.5,-30.5));
#458=CARTESIAN_POINT('Ctrl Pts',(1.98792489124867,44.5,-30.5));
#459=CARTESIAN_POINT('Ctrl Pts',(4.0223998529048,44.3638893955855,-30.3025183385951));
#460=CARTESIAN_POINT('Ctrl Pts',(8.02715513039848,43.816653949896,-29.4955437094709));
#461=CARTESIAN_POINT('Ctrl Pts',(9.9975454020248,43.4058387480543,-28.8863865088488));
#462=CARTESIAN_POINT('Ctrl Pts',(13.7390637022765,42.3704597744958,-27.3059028930761));
#463=CARTESIAN_POINT('Ctrl Pts',(15.5142277035617,41.7453881230076,-26.3332720832981));
#464=CARTESIAN_POINT('Ctrl Pts',(18.7735576082928,40.3846781037292,-24.1181677218073));
#465=CARTESIAN_POINT('Ctrl Pts',(20.2579446824811,39.6497734342488,-22.8755689698983));
#466=CARTESIAN_POINT('Ctrl Pts',(22.8924559817279,38.1900832924532,-20.2410576706515));
#467=CARTESIAN_POINT('Ctrl Pts',(24.1382926548032,37.4084566184473,-18.7474752576874));
#468=CARTESIAN_POINT('Ctrl Pts',(26.3479534084717,35.8864201359239,-15.4890397290699));
#469=CARTESIAN_POINT('Ctrl Pts',(27.3124035556107,35.1469338023174,-13.7241799057105));
#470=CARTESIAN_POINT('Ctrl Pts',(28.8821704400065,33.8687879823852,-10.0070200946261));
#471=CARTESIAN_POINT('Ctrl Pts',(29.4888394597981,33.3310162371799,-8.05077181287611));
#472=CARTESIAN_POINT('Ctrl Pts',(30.2980032721112,32.5972283636735,-4.05432777985563));
#473=CARTESIAN_POINT('Ctrl Pts',(30.5,32.4037034920393,-2.01357418806814));
#474=CARTESIAN_POINT('Ctrl Pts',(30.5,32.4037034920393,1.11022302462516E-15));
#475=CARTESIAN_POINT('Origin',(0.,0.,0.));
#476=CARTESIAN_POINT('Origin',(-3.54066983922288E-15,-7.89491928622334E-16,
-39.));
#477=CARTESIAN_POINT('Origin',(-3.54066983922288E-15,-7.89491928622334E-16,
39.));
#478=UNCERTAINTY_MEASURE_WITH_UNIT(LENGTH_MEASURE(0.01),#482,
'DISTANCE_ACCURACY_VALUE',
'Maximum model space distance between geometric entities at asserted c
onnectivities');
#479=UNCERTAINTY_MEASURE_WITH_UNIT(LENGTH_MEASURE(1.E-6),#482,
'DISTANCE_ACCURACY_VALUE',
'Maximum model space distance between geometric entities at asserted c
onnectivities');
#480=(
GEOMETRIC_REPRESENTATION_CONTEXT(3)
GLOBAL_UNCERTAINTY_ASSIGNED_CONTEXT((#478))
GLOBAL_UNIT_ASSIGNED_CONTEXT((#482,#485,#483))
REPRESENTATION_CONTEXT('','3D')
);
#481=(
GEOMETRIC_REPRESENTATION_CONTEXT(3)
GLOBAL_UNCERTAINTY_ASSIGNED_CONTEXT((#479))
GLOBAL_UNIT_ASSIGNED_CONTEXT((#482,#485,#483))
REPRESENTATION_CONTEXT('','3D')
);
#482=(
LENGTH_UNIT()
NAMED_UNIT(*)
SI_UNIT(.MILLI.,.METRE.)
);
#483=(
NAMED_UNIT(*)
SI_UNIT($,.STERADIAN.)
SOLID_ANGLE_UNIT()
);
#484=DIMENSIONAL_EXPONENTS(0.,0.,0.,0.,0.,0.,0.);
#485=(
CONVERSION_BASED_UNIT('degree',#487)
NAMED_UNIT(#484)
PLANE_ANGLE_UNIT()
);
#486=(
NAMED_UNIT(*)
PLANE_ANGLE_UNIT()
SI_UNIT($,.RADIAN.)
);
#487=PLANE_ANGLE_MEASURE_WITH_UNIT(PLANE_ANGLE_MEASURE(0.01745329252),#486);
#488=SHAPE_DEFINITION_REPRESENTATION(#489,#490);
#489=PRODUCT_DEFINITION_SHAPE('',$,#492);
#490=SHAPE_REPRESENTATION('',(#201),#480);
#491=PRODUCT_DEFINITION_CONTEXT('part definition',#496,'design');
#492=PRODUCT_DEFINITION('TR40075F','TR40075F',#493,#491);
#493=PRODUCT_DEFINITION_FORMATION('',$,#498);
#494=PRODUCT_RELATED_PRODUCT_CATEGORY('TR40075F','TR40075F',(#498));
#495=APPLICATION_PROTOCOL_DEFINITION('international standard',
'automotive_design',2009,#496);
#496=APPLICATION_CONTEXT(
'Core Data for Automotive Mechanical Design Process');
#497=PRODUCT_CONTEXT('part definition',#496,'mechanical');
#498=PRODUCT('TR40075F','TR40075F',$,(#497));
#499=PRESENTATION_STYLE_ASSIGNMENT((#500));
#500=SURFACE_STYLE_USAGE(.BOTH.,#501);
#501=SURFACE_SIDE_STYLE('',(#502));
#502=SURFACE_STYLE_FILL_AREA(#503);
#503=FILL_AREA_STYLE('',(#504));
#504=FILL_AREA_STYLE_COLOUR('',#505);
#505=COLOUR_RGB('',0.8,0.8,0.8);
ENDSEC;
END-ISO-10303-21;
