ISO-10303-21;
HEADER;
/* Generated by software containing ST-Developer
 * from STEP Tools, Inc. (www.steptools.com) 
 */

FILE_DESCRIPTION(
/* description */ (''),
/* implementation_level */ '2;1');

FILE_NAME(
/* name */ 
'Q:\\Ric010\\FF7\\FIPlastiCAD\\FIP\\Lavoro\\PVC Fittings\\PVC Fittings
 STEP\\NRIV\\NRIV032114.ipt.stp',
/* time_stamp */ '2013-10-01T14:48:28+02:00',
/* author */ ('bfaro'),
/* organization */ (''),
/* preprocessor_version */ 'ST-DEVELOPER v15.2',
/* originating_system */ 'Autodesk Inventor 2014',
/* authorisation */ '');

FILE_SCHEMA (('AUTOMOTIVE_DESIGN { 1 0 10303 214 3 1 1 }'));
ENDSEC;

DATA;
#10=GEOMETRICALLY_BOUNDED_SURFACE_SHAPE_REPRESENTATION('',(#11),#499);
#11=GEOMETRIC_SET('GEOSET',(#12));
#12=TRIMMED_CURVE($,#34,(#496,PARAMETER_VALUE(0.)),(#497,
PARAMETER_VALUE(1.)),.T.,.PARAMETER.);
#13=SHAPE_REPRESENTATION_RELATIONSHIP('SRR','None',#508,#15);
#14=SHAPE_REPRESENTATION_RELATIONSHIP('SRR','None',#508,#10);
#15=ADVANCED_BREP_SHAPE_REPRESENTATION($,(#296),#499);
#16=LINE($,#460,#35);
#17=LINE($,#462,#36);
#18=LINE($,#464,#37);
#19=LINE($,#466,#38);
#20=LINE($,#468,#39);
#21=LINE($,#469,#40);
#22=LINE($,#473,#41);
#23=LINE($,#474,#42);
#24=LINE($,#475,#43);
#25=LINE($,#478,#44);
#26=LINE($,#479,#45);
#27=LINE($,#482,#46);
#28=LINE($,#483,#47);
#29=LINE($,#486,#48);
#30=LINE($,#487,#49);
#31=LINE($,#490,#50);
#32=LINE($,#491,#51);
#33=LINE($,#493,#52);
#34=LINE($,#495,#53);
#35=VECTOR($,#385,31.7542648054294);
#36=VECTOR($,#386,31.7542648054294);
#37=VECTOR($,#387,31.7542648054294);
#38=VECTOR($,#388,31.7542648054294);
#39=VECTOR($,#389,31.7542648054294);
#40=VECTOR($,#390,31.7542648054294);
#41=VECTOR($,#393,31.7542648054294);
#42=VECTOR($,#394,10.3);
#43=VECTOR($,#395,10.3);
#44=VECTOR($,#398,31.7542648054294);
#45=VECTOR($,#399,10.3);
#46=VECTOR($,#402,31.7542648054294);
#47=VECTOR($,#403,10.3);
#48=VECTOR($,#406,31.7542648054294);
#49=VECTOR($,#407,10.3);
#50=VECTOR($,#410,31.7542648054294);
#51=VECTOR($,#411,10.3);
#52=VECTOR($,#414,31.7542648054294);
#53=VECTOR($,#417,66.);
#54=PLANE($,#320);
#55=PLANE($,#321);
#56=PLANE($,#322);
#57=PLANE($,#323);
#58=PLANE($,#324);
#59=PLANE($,#325);
#60=PLANE($,#326);
#61=PLANE($,#327);
#62=PLANE($,#328);
#63=PLANE($,#329);
#64=PLANE($,#330);
#65=STYLED_ITEM($,(#517),#283);
#66=STYLED_ITEM($,(#516),#296);
#67=TOROIDAL_SURFACE($,#308,17.0000000000003,1.00000000000041);
#68=TOROIDAL_SURFACE($,#315,20.5000000000001,1.00000000000019);
#69=CONICAL_SURFACE($,#301,13.475,15.0000000000005);
#70=CONICAL_SURFACE($,#313,15.5450372071672,20.0000000000003);
#71=FACE_BOUND($,#106,.T.);
#72=FACE_BOUND($,#108,.T.);
#73=FACE_BOUND($,#110,.T.);
#74=FACE_BOUND($,#112,.T.);
#75=FACE_BOUND($,#114,.T.);
#76=FACE_BOUND($,#116,.T.);
#77=FACE_BOUND($,#118,.T.);
#78=FACE_BOUND($,#120,.T.);
#79=FACE_BOUND($,#122,.T.);
#80=FACE_BOUND($,#124,.T.);
#81=FACE_BOUND($,#126,.T.);
#82=FACE_BOUND($,#128,.T.);
#83=FACE_BOUND($,#130,.T.);
#84=FACE_BOUND($,#138,.T.);
#85=FACE_OUTER_BOUND($,#105,.T.);
#86=FACE_OUTER_BOUND($,#107,.T.);
#87=FACE_OUTER_BOUND($,#109,.T.);
#88=FACE_OUTER_BOUND($,#111,.T.);
#89=FACE_OUTER_BOUND($,#113,.T.);
#90=FACE_OUTER_BOUND($,#115,.T.);
#91=FACE_OUTER_BOUND($,#117,.T.);
#92=FACE_OUTER_BOUND($,#119,.T.);
#93=FACE_OUTER_BOUND($,#121,.T.);
#94=FACE_OUTER_BOUND($,#123,.T.);
#95=FACE_OUTER_BOUND($,#125,.T.);
#96=FACE_OUTER_BOUND($,#127,.T.);
#97=FACE_OUTER_BOUND($,#129,.T.);
#98=FACE_OUTER_BOUND($,#131,.T.);
#99=FACE_OUTER_BOUND($,#132,.T.);
#100=FACE_OUTER_BOUND($,#133,.T.);
#101=FACE_OUTER_BOUND($,#134,.T.);
#102=FACE_OUTER_BOUND($,#135,.T.);
#103=FACE_OUTER_BOUND($,#136,.T.);
#104=FACE_OUTER_BOUND($,#137,.T.);
#105=EDGE_LOOP($,(#208));
#106=EDGE_LOOP($,(#209));
#107=EDGE_LOOP($,(#210));
#108=EDGE_LOOP($,(#211));
#109=EDGE_LOOP($,(#212));
#110=EDGE_LOOP($,(#213));
#111=EDGE_LOOP($,(#214));
#112=EDGE_LOOP($,(#215));
#113=EDGE_LOOP($,(#216));
#114=EDGE_LOOP($,(#217));
#115=EDGE_LOOP($,(#218));
#116=EDGE_LOOP($,(#219));
#117=EDGE_LOOP($,(#220));
#118=EDGE_LOOP($,(#221));
#119=EDGE_LOOP($,(#222));
#120=EDGE_LOOP($,(#223));
#121=EDGE_LOOP($,(#224));
#122=EDGE_LOOP($,(#225));
#123=EDGE_LOOP($,(#226));
#124=EDGE_LOOP($,(#227));
#125=EDGE_LOOP($,(#228));
#126=EDGE_LOOP($,(#229));
#127=EDGE_LOOP($,(#230));
#128=EDGE_LOOP($,(#231));
#129=EDGE_LOOP($,(#232,#233,#234,#235,#236,#237));
#130=EDGE_LOOP($,(#238));
#131=EDGE_LOOP($,(#239,#240,#241,#242));
#132=EDGE_LOOP($,(#243,#244,#245,#246));
#133=EDGE_LOOP($,(#247,#248,#249,#250));
#134=EDGE_LOOP($,(#251,#252,#253,#254));
#135=EDGE_LOOP($,(#255,#256,#257,#258));
#136=EDGE_LOOP($,(#259,#260,#261,#262));
#137=EDGE_LOOP($,(#263,#264,#265,#266,#267,#268));
#138=EDGE_LOOP($,(#269));
#139=CIRCLE($,#299,14.45);
#140=CIRCLE($,#300,14.45);
#141=CIRCLE($,#302,12.5);
#142=CIRCLE($,#304,12.5000000000001);
#143=CIRCLE($,#306,19.5);
#144=CIRCLE($,#307,19.5);
#145=CIRCLE($,#309,17.);
#146=CIRCLE($,#310,16.);
#147=CIRCLE($,#312,16.);
#148=CIRCLE($,#314,15.0900744143345);
#149=CIRCLE($,#316,20.5);
#150=CIRCLE($,#318,21.);
#151=CIRCLE($,#319,21.);
#152=VERTEX_POINT($,#420);
#153=VERTEX_POINT($,#422);
#154=VERTEX_POINT($,#425);
#155=VERTEX_POINT($,#428);
#156=VERTEX_POINT($,#431);
#157=VERTEX_POINT($,#433);
#158=VERTEX_POINT($,#436);
#159=VERTEX_POINT($,#438);
#160=VERTEX_POINT($,#441);
#161=VERTEX_POINT($,#444);
#162=VERTEX_POINT($,#447);
#163=VERTEX_POINT($,#450);
#164=VERTEX_POINT($,#452);
#165=VERTEX_POINT($,#458);
#166=VERTEX_POINT($,#459);
#167=VERTEX_POINT($,#461);
#168=VERTEX_POINT($,#463);
#169=VERTEX_POINT($,#465);
#170=VERTEX_POINT($,#467);
#171=VERTEX_POINT($,#471);
#172=VERTEX_POINT($,#472);
#173=VERTEX_POINT($,#477);
#174=VERTEX_POINT($,#481);
#175=VERTEX_POINT($,#485);
#176=VERTEX_POINT($,#489);
#177=EDGE_CURVE($,#152,#152,#139,.T.);
#178=EDGE_CURVE($,#153,#153,#140,.T.);
#179=EDGE_CURVE($,#154,#154,#141,.T.);
#180=EDGE_CURVE($,#155,#155,#142,.T.);
#181=EDGE_CURVE($,#156,#156,#143,.T.);
#182=EDGE_CURVE($,#157,#157,#144,.T.);
#183=EDGE_CURVE($,#158,#158,#145,.T.);
#184=EDGE_CURVE($,#159,#159,#146,.T.);
#185=EDGE_CURVE($,#160,#160,#147,.T.);
#186=EDGE_CURVE($,#161,#161,#148,.T.);
#187=EDGE_CURVE($,#162,#162,#149,.T.);
#188=EDGE_CURVE($,#163,#163,#150,.T.);
#189=EDGE_CURVE($,#164,#164,#151,.T.);
#190=EDGE_CURVE($,#165,#166,#16,.T.);
#191=EDGE_CURVE($,#167,#165,#17,.T.);
#192=EDGE_CURVE($,#168,#167,#18,.T.);
#193=EDGE_CURVE($,#169,#168,#19,.T.);
#194=EDGE_CURVE($,#170,#169,#20,.T.);
#195=EDGE_CURVE($,#166,#170,#21,.T.);
#196=EDGE_CURVE($,#171,#172,#22,.T.);
#197=EDGE_CURVE($,#167,#172,#23,.T.);
#198=EDGE_CURVE($,#165,#171,#24,.T.);
#199=EDGE_CURVE($,#172,#173,#25,.T.);
#200=EDGE_CURVE($,#168,#173,#26,.T.);
#201=EDGE_CURVE($,#173,#174,#27,.T.);
#202=EDGE_CURVE($,#169,#174,#28,.T.);
#203=EDGE_CURVE($,#174,#175,#29,.T.);
#204=EDGE_CURVE($,#170,#175,#30,.T.);
#205=EDGE_CURVE($,#175,#176,#31,.T.);
#206=EDGE_CURVE($,#166,#176,#32,.T.);
#207=EDGE_CURVE($,#176,#171,#33,.T.);
#208=ORIENTED_EDGE($,*,*,#177,.T.);
#209=ORIENTED_EDGE($,*,*,#178,.F.);
#210=ORIENTED_EDGE($,*,*,#178,.T.);
#211=ORIENTED_EDGE($,*,*,#179,.F.);
#212=ORIENTED_EDGE($,*,*,#179,.T.);
#213=ORIENTED_EDGE($,*,*,#180,.F.);
#214=ORIENTED_EDGE($,*,*,#181,.T.);
#215=ORIENTED_EDGE($,*,*,#182,.F.);
#216=ORIENTED_EDGE($,*,*,#183,.F.);
#217=ORIENTED_EDGE($,*,*,#184,.T.);
#218=ORIENTED_EDGE($,*,*,#185,.T.);
#219=ORIENTED_EDGE($,*,*,#184,.F.);
#220=ORIENTED_EDGE($,*,*,#186,.T.);
#221=ORIENTED_EDGE($,*,*,#185,.F.);
#222=ORIENTED_EDGE($,*,*,#187,.T.);
#223=ORIENTED_EDGE($,*,*,#182,.T.);
#224=ORIENTED_EDGE($,*,*,#188,.F.);
#225=ORIENTED_EDGE($,*,*,#189,.F.);
#226=ORIENTED_EDGE($,*,*,#189,.T.);
#227=ORIENTED_EDGE($,*,*,#177,.F.);
#228=ORIENTED_EDGE($,*,*,#186,.F.);
#229=ORIENTED_EDGE($,*,*,#180,.T.);
#230=ORIENTED_EDGE($,*,*,#181,.F.);
#231=ORIENTED_EDGE($,*,*,#183,.T.);
#232=ORIENTED_EDGE($,*,*,#190,.F.);
#233=ORIENTED_EDGE($,*,*,#191,.F.);
#234=ORIENTED_EDGE($,*,*,#192,.F.);
#235=ORIENTED_EDGE($,*,*,#193,.F.);
#236=ORIENTED_EDGE($,*,*,#194,.F.);
#237=ORIENTED_EDGE($,*,*,#195,.F.);
#238=ORIENTED_EDGE($,*,*,#187,.F.);
#239=ORIENTED_EDGE($,*,*,#196,.T.);
#240=ORIENTED_EDGE($,*,*,#197,.F.);
#241=ORIENTED_EDGE($,*,*,#191,.T.);
#242=ORIENTED_EDGE($,*,*,#198,.T.);
#243=ORIENTED_EDGE($,*,*,#199,.T.);
#244=ORIENTED_EDGE($,*,*,#200,.F.);
#245=ORIENTED_EDGE($,*,*,#192,.T.);
#246=ORIENTED_EDGE($,*,*,#197,.T.);
#247=ORIENTED_EDGE($,*,*,#201,.T.);
#248=ORIENTED_EDGE($,*,*,#202,.F.);
#249=ORIENTED_EDGE($,*,*,#193,.T.);
#250=ORIENTED_EDGE($,*,*,#200,.T.);
#251=ORIENTED_EDGE($,*,*,#203,.T.);
#252=ORIENTED_EDGE($,*,*,#204,.F.);
#253=ORIENTED_EDGE($,*,*,#194,.T.);
#254=ORIENTED_EDGE($,*,*,#202,.T.);
#255=ORIENTED_EDGE($,*,*,#205,.T.);
#256=ORIENTED_EDGE($,*,*,#206,.F.);
#257=ORIENTED_EDGE($,*,*,#195,.T.);
#258=ORIENTED_EDGE($,*,*,#204,.T.);
#259=ORIENTED_EDGE($,*,*,#207,.T.);
#260=ORIENTED_EDGE($,*,*,#198,.F.);
#261=ORIENTED_EDGE($,*,*,#190,.T.);
#262=ORIENTED_EDGE($,*,*,#206,.T.);
#263=ORIENTED_EDGE($,*,*,#196,.F.);
#264=ORIENTED_EDGE($,*,*,#207,.F.);
#265=ORIENTED_EDGE($,*,*,#205,.F.);
#266=ORIENTED_EDGE($,*,*,#203,.F.);
#267=ORIENTED_EDGE($,*,*,#201,.F.);
#268=ORIENTED_EDGE($,*,*,#199,.F.);
#269=ORIENTED_EDGE($,*,*,#188,.T.);
#270=CYLINDRICAL_SURFACE($,#298,14.45);
#271=CYLINDRICAL_SURFACE($,#303,12.5);
#272=CYLINDRICAL_SURFACE($,#305,19.5);
#273=CYLINDRICAL_SURFACE($,#311,16.);
#274=CYLINDRICAL_SURFACE($,#317,21.);
#275=ADVANCED_FACE($,(#85,#71),#270,.F.);
#276=ADVANCED_FACE($,(#86,#72),#69,.F.);
#277=ADVANCED_FACE($,(#87,#73),#271,.F.);
#278=ADVANCED_FACE($,(#88,#74),#272,.T.);
#279=ADVANCED_FACE($,(#89,#75),#67,.F.);
#280=ADVANCED_FACE($,(#90,#76),#273,.T.);
#281=ADVANCED_FACE($,(#91,#77),#70,.T.);
#282=ADVANCED_FACE($,(#92,#78),#68,.F.);
#283=ADVANCED_FACE($,(#93,#79),#274,.T.);
#284=ADVANCED_FACE($,(#94,#80),#54,.T.);
#285=ADVANCED_FACE($,(#95,#81),#55,.T.);
#286=ADVANCED_FACE($,(#96,#82),#56,.T.);
#287=ADVANCED_FACE($,(#97,#83),#57,.T.);
#288=ADVANCED_FACE($,(#98),#58,.T.);
#289=ADVANCED_FACE($,(#99),#59,.T.);
#290=ADVANCED_FACE($,(#100),#60,.T.);
#291=ADVANCED_FACE($,(#101),#61,.T.);
#292=ADVANCED_FACE($,(#102),#62,.T.);
#293=ADVANCED_FACE($,(#103),#63,.T.);
#294=ADVANCED_FACE($,(#104,#84),#64,.F.);
#295=CLOSED_SHELL($,(#275,#276,#277,#278,#279,#280,#281,#282,#283,#284,
#285,#286,#287,#288,#289,#290,#291,#292,#293,#294));
#296=MANIFOLD_SOLID_BREP('40C',#295);
#297=AXIS2_PLACEMENT_3D('placement',#418,#331,#332);
#298=AXIS2_PLACEMENT_3D($,#419,#333,#334);
#299=AXIS2_PLACEMENT_3D($,#421,#335,#336);
#300=AXIS2_PLACEMENT_3D($,#423,#337,#338);
#301=AXIS2_PLACEMENT_3D($,#424,#339,#340);
#302=AXIS2_PLACEMENT_3D($,#426,#341,#342);
#303=AXIS2_PLACEMENT_3D($,#427,#343,#344);
#304=AXIS2_PLACEMENT_3D($,#429,#345,#346);
#305=AXIS2_PLACEMENT_3D($,#430,#347,#348);
#306=AXIS2_PLACEMENT_3D($,#432,#349,#350);
#307=AXIS2_PLACEMENT_3D($,#434,#351,#352);
#308=AXIS2_PLACEMENT_3D($,#435,#353,#354);
#309=AXIS2_PLACEMENT_3D($,#437,#355,#356);
#310=AXIS2_PLACEMENT_3D($,#439,#357,#358);
#311=AXIS2_PLACEMENT_3D($,#440,#359,#360);
#312=AXIS2_PLACEMENT_3D($,#442,#361,#362);
#313=AXIS2_PLACEMENT_3D($,#443,#363,#364);
#314=AXIS2_PLACEMENT_3D($,#445,#365,#366);
#315=AXIS2_PLACEMENT_3D($,#446,#367,#368);
#316=AXIS2_PLACEMENT_3D($,#448,#369,#370);
#317=AXIS2_PLACEMENT_3D($,#449,#371,#372);
#318=AXIS2_PLACEMENT_3D($,#451,#373,#374);
#319=AXIS2_PLACEMENT_3D($,#453,#375,#376);
#320=AXIS2_PLACEMENT_3D($,#454,#377,#378);
#321=AXIS2_PLACEMENT_3D($,#455,#379,#380);
#322=AXIS2_PLACEMENT_3D($,#456,#381,#382);
#323=AXIS2_PLACEMENT_3D($,#457,#383,#384);
#324=AXIS2_PLACEMENT_3D($,#470,#391,#392);
#325=AXIS2_PLACEMENT_3D($,#476,#396,#397);
#326=AXIS2_PLACEMENT_3D($,#480,#400,#401);
#327=AXIS2_PLACEMENT_3D($,#484,#404,#405);
#328=AXIS2_PLACEMENT_3D($,#488,#408,#409);
#329=AXIS2_PLACEMENT_3D($,#492,#412,#413);
#330=AXIS2_PLACEMENT_3D($,#494,#415,#416);
#331=DIRECTION('axis',(0.,0.,1.));
#332=DIRECTION('refdir',(1.,0.,0.));
#333=DIRECTION('center_axis',(0.,-1.,0.));
#334=DIRECTION('ref_axis',(1.,0.,0.));
#335=DIRECTION('center_axis',(0.,-1.,0.));
#336=DIRECTION('ref_axis',(1.,0.,0.));
#337=DIRECTION('center_axis',(0.,-1.,0.));
#338=DIRECTION('ref_axis',(1.,0.,0.));
#339=DIRECTION('center_axis',(0.,-1.,0.));
#340=DIRECTION('ref_axis',(1.,0.,0.));
#341=DIRECTION('center_axis',(0.,-1.,0.));
#342=DIRECTION('ref_axis',(1.,0.,0.));
#343=DIRECTION('center_axis',(0.,-1.,0.));
#344=DIRECTION('ref_axis',(1.,0.,0.));
#345=DIRECTION('center_axis',(0.,-1.,0.));
#346=DIRECTION('ref_axis',(1.,0.,0.));
#347=DIRECTION('center_axis',(0.,-1.,0.));
#348=DIRECTION('ref_axis',(1.,0.,0.));
#349=DIRECTION('center_axis',(0.,-1.,0.));
#350=DIRECTION('ref_axis',(1.,0.,0.));
#351=DIRECTION('center_axis',(0.,-1.,0.));
#352=DIRECTION('ref_axis',(1.,0.,0.));
#353=DIRECTION('center_axis',(-7.59492116723208E-016,-1.,-2.25607505341585E-014));
#354=DIRECTION('ref_axis',(0.,2.25005199657357E-014,-1.));
#355=DIRECTION('center_axis',(0.,-1.,0.));
#356=DIRECTION('ref_axis',(1.,0.,0.));
#357=DIRECTION('center_axis',(0.,-1.,0.));
#358=DIRECTION('ref_axis',(1.,0.,0.));
#359=DIRECTION('center_axis',(0.,-1.,0.));
#360=DIRECTION('ref_axis',(1.,0.,0.));
#361=DIRECTION('center_axis',(0.,-1.,0.));
#362=DIRECTION('ref_axis',(1.,0.,0.));
#363=DIRECTION('center_axis',(0.,-1.,0.));
#364=DIRECTION('ref_axis',(1.,0.,0.));
#365=DIRECTION('center_axis',(0.,-1.,0.));
#366=DIRECTION('ref_axis',(1.,0.,0.));
#367=DIRECTION('center_axis',(-4.04921360050911E-016,-1.,-8.87300799897729E-015));
#368=DIRECTION('ref_axis',(0.,8.75785232448483E-015,-1.));
#369=DIRECTION('center_axis',(0.,1.,0.));
#370=DIRECTION('ref_axis',(0.,0.,-1.));
#371=DIRECTION('center_axis',(0.,-1.,0.));
#372=DIRECTION('ref_axis',(1.,0.,0.));
#373=DIRECTION('center_axis',(0.,1.,0.));
#374=DIRECTION('ref_axis',(1.,0.,0.));
#375=DIRECTION('center_axis',(0.,-1.,0.));
#376=DIRECTION('ref_axis',(1.,0.,0.));
#377=DIRECTION('center_axis',(0.,-1.,0.));
#378=DIRECTION('ref_axis',(0.,0.,-1.));
#379=DIRECTION('center_axis',(0.,1.,0.));
#380=DIRECTION('ref_axis',(0.,0.,1.));
#381=DIRECTION('center_axis',(0.,1.,0.));
#382=DIRECTION('ref_axis',(0.,0.,1.));
#383=DIRECTION('center_axis',(0.,1.,0.));
#384=DIRECTION('ref_axis',(0.,0.,1.));
#385=DIRECTION($,(-0.5,-2.237629E-016,-0.866025403784438));
#386=DIRECTION($,(-1.,0.,0.));
#387=DIRECTION($,(-0.5,2.237629E-016,0.866025403784439));
#388=DIRECTION($,(0.500000000000002,2.237629E-016,0.866025403784437));
#389=DIRECTION($,(1.,0.,0.));
#390=DIRECTION($,(0.5,-2.237629E-016,-0.866025403784438));
#391=DIRECTION('center_axis',(0.,0.,1.));
#392=DIRECTION('ref_axis',(1.,0.,0.));
#393=DIRECTION($,(1.,0.,0.));
#394=DIRECTION($,(0.,-1.,0.));
#395=DIRECTION($,(0.,-1.,0.));
#396=DIRECTION('center_axis',(0.866025403784439,1.724618E-016,0.5));
#397=DIRECTION('ref_axis',(0.500000000000001,0.,-0.866025403784438));
#398=DIRECTION($,(0.5,-1.678222E-016,-0.866025403784439));
#399=DIRECTION($,(0.,-1.,0.));
#400=DIRECTION('center_axis',(0.866025403784437,-1.724618E-016,-0.500000000000002));
#401=DIRECTION('ref_axis',(-0.500000000000001,0.,-0.866025403784438));
#402=DIRECTION($,(-0.500000000000002,-1.678222E-016,-0.866025403784437));
#403=DIRECTION($,(0.,-1.,0.));
#404=DIRECTION('center_axis',(0.,0.,-1.));
#405=DIRECTION('ref_axis',(-1.,0.,0.));
#406=DIRECTION($,(-1.,0.,0.));
#407=DIRECTION($,(0.,-1.,0.));
#408=DIRECTION('center_axis',(-0.866025403784438,-1.724618E-016,-0.5));
#409=DIRECTION('ref_axis',(-0.500000000000001,0.,0.866025403784438));
#410=DIRECTION($,(-0.5,1.678222E-016,0.866025403784438));
#411=DIRECTION($,(0.,-1.,0.));
#412=DIRECTION('center_axis',(-0.866025403784438,1.724618E-016,0.5));
#413=DIRECTION('ref_axis',(0.5,0.,0.866025403784439));
#414=DIRECTION($,(0.5,1.678222E-016,0.866025403784438));
#415=DIRECTION('center_axis',(0.,1.,0.));
#416=DIRECTION('ref_axis',(0.,0.,1.));
#417=DIRECTION($,(0.,-1.,0.));
#418=CARTESIAN_POINT('',(0.,0.,0.));
#419=CARTESIAN_POINT('Origin',(68.0442715690951,-1.49317384954043,0.));
#420=CARTESIAN_POINT('',(53.5942715690951,-16.8544243121608,-1.769556E-015));
#421=CARTESIAN_POINT('Origin',(68.0442715690951,-16.8544243121608,0.));
#422=CARTESIAN_POINT('',(53.5942715690951,13.86807661308,-1.769556E-015));
#423=CARTESIAN_POINT('Origin',(68.0442715690951,13.86807661308,0.));
#424=CARTESIAN_POINT('Origin',(68.0442715690951,17.5068261504596,0.));
#425=CARTESIAN_POINT('',(55.5442715690952,21.1455756878392,-1.530758E-015));
#426=CARTESIAN_POINT('Origin',(68.0442715690951,21.1455756878392,0.));
#427=CARTESIAN_POINT('Origin',(68.0442715690951,35.1455756878392,0.));
#428=CARTESIAN_POINT('',(55.5442715690952,49.1455756878392,-1.530758E-015));
#429=CARTESIAN_POINT('Origin',(68.0442715690951,49.1455756878392,0.));
#430=CARTESIAN_POINT('Origin',(68.0442715690951,25.6455756878391,0.));
#431=CARTESIAN_POINT('',(48.5442715690952,27.1455756878392,-2.387982E-015));
#432=CARTESIAN_POINT('Origin',(68.0442715690951,27.1455756878392,0.));
#433=CARTESIAN_POINT('',(68.0442715690951,24.1455756878391,19.5));
#434=CARTESIAN_POINT('Origin',(68.0442715690951,24.1455756878391,0.));
#435=CARTESIAN_POINT('Origin',(68.0442715690949,28.1455756878396,-1.01918473660589E-012));
#436=CARTESIAN_POINT('',(85.0442715690951,27.1455756878392,0.));
#437=CARTESIAN_POINT('Origin',(68.0442715690951,27.1455756878392,0.));
#438=CARTESIAN_POINT('',(52.0442715690951,28.1455756878392,-1.95937E-015));
#439=CARTESIAN_POINT('Origin',(68.0442715690951,28.1455756878392,0.));
#440=CARTESIAN_POINT('Origin',(68.0442715690951,37.3955756878392,0.));
#441=CARTESIAN_POINT('',(52.0442715690951,46.6455756878392,-1.95937E-015));
#442=CARTESIAN_POINT('Origin',(68.0442715690951,46.6455756878392,0.));
#443=CARTESIAN_POINT('Origin',(68.0442715690951,47.8955756878392,0.));
#444=CARTESIAN_POINT('',(52.9541971547607,49.1455756878392,-1.84794E-015));
#445=CARTESIAN_POINT('Origin',(68.0442715690951,49.1455756878392,0.));
#446=CARTESIAN_POINT('Origin',(68.044271569095,24.1455756878393,-4.44089209850063E-013));
#447=CARTESIAN_POINT('',(88.5442715690951,23.1455756878391,0.));
#448=CARTESIAN_POINT('Origin',(68.0442715690951,23.1455756878391,-3.198074E-032));
#449=CARTESIAN_POINT('Origin',(68.0442715690951,3.14557568783914,0.));
#450=CARTESIAN_POINT('',(47.0442715690951,12.8455756878391,2.571673E-015));
#451=CARTESIAN_POINT('Origin',(68.0442715690951,12.8455756878391,0.));
#452=CARTESIAN_POINT('',(47.0442715690951,-16.8544243121608,-2.571673E-015));
#453=CARTESIAN_POINT('Origin',(68.0442715690951,-16.8544243121608,0.));
#454=CARTESIAN_POINT('Origin',(85.7692715690952,-16.8544243121608,0.));
#455=CARTESIAN_POINT('Origin',(81.8393087762624,49.1455756878392,0.));
#456=CARTESIAN_POINT('Origin',(86.2942715690951,27.1455756878392,0.));
#457=CARTESIAN_POINT('Origin',(68.0442715690951,23.1455756878391,-8.881784E-016));
#458=CARTESIAN_POINT('',(52.1671391663804,23.1455756878391,27.5));
#459=CARTESIAN_POINT('',(36.2900067636657,23.1455756878391,3.888647E-015));
#460=CARTESIAN_POINT($,(52.1671391663804,23.1455756878391,27.5));
#461=CARTESIAN_POINT('',(83.9214039718099,23.1455756878391,27.5));
#462=CARTESIAN_POINT($,(83.9214039718099,23.1455756878391,27.5));
#463=CARTESIAN_POINT('',(99.7985363745246,23.1455756878391,-3.598075E-014));
#464=CARTESIAN_POINT($,(99.7985363745246,23.1455756878391,-3.598075E-014));
#465=CARTESIAN_POINT('',(83.9214039718098,23.1455756878391,-27.5));
#466=CARTESIAN_POINT($,(83.9214039718098,23.1455756878391,-27.5));
#467=CARTESIAN_POINT('',(52.1671391663804,23.1455756878391,-27.5));
#468=CARTESIAN_POINT($,(52.1671391663804,23.1455756878391,-27.5));
#469=CARTESIAN_POINT($,(36.2900067636657,23.1455756878391,3.888647E-015));
#470=CARTESIAN_POINT('Origin',(52.1671391663804,23.1455756878391,27.5));
#471=CARTESIAN_POINT('',(52.1671391663804,12.8455756878391,27.5));
#472=CARTESIAN_POINT('',(83.9214039718099,12.8455756878391,27.5));
#473=CARTESIAN_POINT($,(52.1671391663804,12.8455756878391,27.5));
#474=CARTESIAN_POINT($,(83.9214039718099,23.1455756878391,27.5));
#475=CARTESIAN_POINT($,(52.1671391663804,23.1455756878391,27.5));
#476=CARTESIAN_POINT('Origin',(83.9214039718099,23.1455756878391,27.5));
#477=CARTESIAN_POINT('',(99.7985363745246,12.8455756878391,-3.242803E-014));
#478=CARTESIAN_POINT($,(83.9214039718099,12.8455756878391,27.5));
#479=CARTESIAN_POINT($,(99.7985363745246,23.1455756878391,-3.598075E-014));
#480=CARTESIAN_POINT('Origin',(99.7985363745246,23.1455756878391,-3.598075E-014));
#481=CARTESIAN_POINT('',(83.9214039718098,12.8455756878391,-27.5));
#482=CARTESIAN_POINT($,(99.7985363745246,12.8455756878391,-3.197442E-014));
#483=CARTESIAN_POINT($,(83.9214039718098,23.1455756878391,-27.5));
#484=CARTESIAN_POINT('Origin',(83.9214039718098,23.1455756878391,-27.5));
#485=CARTESIAN_POINT('',(52.1671391663804,12.8455756878391,-27.5));
#486=CARTESIAN_POINT($,(83.9214039718098,12.8455756878391,-27.5));
#487=CARTESIAN_POINT($,(52.1671391663804,23.1455756878391,-27.5));
#488=CARTESIAN_POINT('Origin',(52.1671391663804,23.1455756878391,-27.5));
#489=CARTESIAN_POINT('',(36.2900067636657,12.8455756878391,7.441361E-015));
#490=CARTESIAN_POINT($,(52.1671391663804,12.8455756878391,-27.5));
#491=CARTESIAN_POINT($,(36.2900067636657,23.1455756878391,3.888647E-015));
#492=CARTESIAN_POINT('Origin',(36.2900067636657,23.1455756878391,3.888647E-015));
#493=CARTESIAN_POINT($,(36.2900067636657,12.8455756878391,3.552714E-015));
#494=CARTESIAN_POINT('Origin',(68.0442715690951,12.8455756878391,1.776357E-015));
#495=CARTESIAN_POINT($,(68.0442715690951,49.1455756878392,0.));
#496=CARTESIAN_POINT('',(68.0442715690951,49.1455756878392,0.));
#497=CARTESIAN_POINT('',(68.0442715690951,-16.8544243121608,0.));
#498=UNCERTAINTY_MEASURE_WITH_UNIT(LENGTH_MEASURE(0.01),#500,
'DISTANCE_ACCURACY_VALUE',
'Maximum model space distance between geometric entities at asserted c
onnectivities');
#499=(
GEOMETRIC_REPRESENTATION_CONTEXT(3)
GLOBAL_UNCERTAINTY_ASSIGNED_CONTEXT((#498))
GLOBAL_UNIT_ASSIGNED_CONTEXT((#500,#503,#501))
REPRESENTATION_CONTEXT('','3D')
);
#500=(
LENGTH_UNIT()
NAMED_UNIT(*)
SI_UNIT(.MILLI.,.METRE.)
);
#501=(
NAMED_UNIT(*)
SI_UNIT($,.STERADIAN.)
SOLID_ANGLE_UNIT()
);
#502=DIMENSIONAL_EXPONENTS(0.,0.,0.,0.,0.,0.,0.);
#503=(
CONVERSION_BASED_UNIT('degree',#505)
NAMED_UNIT(#502)
PLANE_ANGLE_UNIT()
);
#504=(
NAMED_UNIT(*)
PLANE_ANGLE_UNIT()
SI_UNIT($,.RADIAN.)
);
#505=PLANE_ANGLE_MEASURE_WITH_UNIT(PLANE_ANGLE_MEASURE(0.01745329252),#504);
#506=SHAPE_DEFINITION_REPRESENTATION(#507,#508);
#507=PRODUCT_DEFINITION_SHAPE('',$,#510);
#508=SHAPE_REPRESENTATION('',(#297),#499);
#509=PRODUCT_DEFINITION_CONTEXT('3D Mechanical Parts',#513,'design');
#510=PRODUCT_DEFINITION('NRIV032114','NRIV032114',#511,#509);
#511=PRODUCT_DEFINITION_FORMATION('',$,#515);
#512=APPLICATION_PROTOCOL_DEFINITION('international standard',
'automotive_design',2009,#513);
#513=APPLICATION_CONTEXT(
'Core Data for Automotive Mechanical Design Process');
#514=PRODUCT_CONTEXT('3D Mechanical Parts',#513,'mechanical');
#515=PRODUCT('NRIV032114','NRIV032114',$,(#514));
#516=PRESENTATION_STYLE_ASSIGNMENT((#518));
#517=PRESENTATION_STYLE_ASSIGNMENT((#519));
#518=SURFACE_STYLE_USAGE(.BOTH.,#520);
#519=SURFACE_STYLE_USAGE(.BOTH.,#521);
#520=SURFACE_SIDE_STYLE($,(#522));
#521=SURFACE_SIDE_STYLE($,(#523));
#522=SURFACE_STYLE_FILL_AREA(#524);
#523=SURFACE_STYLE_FILL_AREA(#525);
#524=FILL_AREA_STYLE($,(#526));
#525=FILL_AREA_STYLE($,(#527));
#526=FILL_AREA_STYLE_COLOUR($,#528);
#527=FILL_AREA_STYLE_COLOUR($,#529);
#528=COLOUR_RGB('',0.509803921568627,0.509803921568627,0.588235294117647);
#529=COLOUR_RGB('',1.,0.,0.);
ENDSEC;
END-ISO-10303-21;
