ISO-10303-21;
HEADER;
/****************************************************************
 * Generated by software with PDElib inside                    *
 * PDElib Version v51a, created Wed 07/06/2011                  *
 * ITI Transcendata (http://www.transcendata.com/)              *
 ****************************************************************/
FILE_DESCRIPTION((''),'2;1');
FILE_NAME('V:\\Neue Zeichnungdateien ab Januar 2010\\Edelstahlprodukte\\Montagewinkel\\Step\\118858.stp','2011-10-18T08:40:54',('DMK009'),(''),'Autodesk Inventor 2012','Autodesk Inventor 2012','');
FILE_SCHEMA(('AUTOMOTIVE_DESIGN { 1 0 10303 214 1 1 1 1 }'));
ENDSEC;
DATA;
#5=APPLICATION_CONTEXT('automotive design');
#6=APPLICATION_PROTOCOL_DEFINITION('International Standard','automotive_design',2001,#5);
#7=PRODUCT_CONTEXT('',#5,'mechanical');
#8=PRODUCT('118858','118858',$,(#7));
#9=PRODUCT_RELATED_PRODUCT_CATEGORY('part',$,(#8));
#10=PRODUCT_DEFINITION_FORMATION('',$,#8);
#11=PRODUCT_DEFINITION_CONTEXT('part definition',#5,'design');
#12=PRODUCT_DEFINITION('',$,#10,#11);
#18=(NAMED_UNIT(*)PLANE_ANGLE_UNIT()SI_UNIT($,.RADIAN.));
#19=DIMENSIONAL_EXPONENTS(0.0,0.0,0.0,0.0,0.0,0.0,0.0);
#20=PLANE_ANGLE_MEASURE_WITH_UNIT(PLANE_ANGLE_MEASURE(0.0174532925),#18);
#24=(CONVERSION_BASED_UNIT('DEGREE',#20)NAMED_UNIT(#19)PLANE_ANGLE_UNIT());
#28=(NAMED_UNIT(*)SI_UNIT($,.STERADIAN.)SOLID_ANGLE_UNIT());
#32=(LENGTH_UNIT()NAMED_UNIT(*)SI_UNIT(.MILLI.,.METRE.));
#34=UNCERTAINTY_MEASURE_WITH_UNIT(LENGTH_MEASURE(0.01),#32,'DISTANCE_ACCURACY_VALUE','');
#36=(GEOMETRIC_REPRESENTATION_CONTEXT(3)GLOBAL_UNCERTAINTY_ASSIGNED_CONTEXT((#34))GLOBAL_UNIT_ASSIGNED_CONTEXT((#24,#28,#32))REPRESENTATION_CONTEXT('None','None'));
#37=AXIS2_PLACEMENT_3D('',#38,#39,#40);
#38=CARTESIAN_POINT('',(0.0,0.0,0.0));
#39=DIRECTION('',(0.0,0.0,1.0));
#40=DIRECTION('',(1.0,0.0,0.0));
#41=SHAPE_REPRESENTATION('',(#37),#36);
#42=PRODUCT_DEFINITION_SHAPE('','',#12);
#43=SHAPE_DEFINITION_REPRESENTATION(#42,#41);
#49=(NAMED_UNIT(*)PLANE_ANGLE_UNIT()SI_UNIT($,.RADIAN.));
#50=DIMENSIONAL_EXPONENTS(0.0,0.0,0.0,0.0,0.0,0.0,0.0);
#51=PLANE_ANGLE_MEASURE_WITH_UNIT(PLANE_ANGLE_MEASURE(0.0174532925),#49);
#55=(CONVERSION_BASED_UNIT('DEGREE',#51)NAMED_UNIT(#50)PLANE_ANGLE_UNIT());
#59=(NAMED_UNIT(*)SI_UNIT($,.STERADIAN.)SOLID_ANGLE_UNIT());
#63=(LENGTH_UNIT()NAMED_UNIT(*)SI_UNIT(.MILLI.,.METRE.));
#65=UNCERTAINTY_MEASURE_WITH_UNIT(LENGTH_MEASURE(0.000001),#63,'DISTANCE_ACCURACY_VALUE','');
#67=(GEOMETRIC_REPRESENTATION_CONTEXT(3)GLOBAL_UNCERTAINTY_ASSIGNED_CONTEXT((#65))GLOBAL_UNIT_ASSIGNED_CONTEXT((#55,#59,#63))REPRESENTATION_CONTEXT('','3D'));
#68=CARTESIAN_POINT('',(4.0,-76.000000000000014,4.440892E-015));
#69=DIRECTION('',(-1.0,0.0,0.0));
#70=DIRECTION('',(0.0,-0.74535599249993,0.666666666666667));
#71=AXIS2_PLACEMENT_3D('',#68,#69,#70);
#72=CYLINDRICAL_SURFACE('',#71,30.0);
#73=CARTESIAN_POINT('',(-5.551115E-016,-98.360679774997919,-20.0));
#74=VERTEX_POINT('',#73);
#75=CARTESIAN_POINT('',(-5.551115E-016,-98.360679774997919,20.0));
#76=VERTEX_POINT('',#75);
#77=CARTESIAN_POINT('',(5.551115E-016,-76.000000000000014,4.440892E-015));
#78=DIRECTION('',(-1.0,0.0,0.0));
#79=DIRECTION('',(0.0,-0.74535599249993,0.666666666666667));
#80=AXIS2_PLACEMENT_3D('',#77,#78,#79);
#81=CIRCLE('',#80,29.999999999999996);
#82=EDGE_CURVE('',#74,#76,#81,.T.);
#83=ORIENTED_EDGE('',*,*,#82,.F.);
#84=CARTESIAN_POINT('',(4.0,-98.360679774997919,-20.0));
#85=VERTEX_POINT('',#84);
#86=CARTESIAN_POINT('',(4.0,-98.360679774997919,-20.0));
#87=DIRECTION('',(-1.0,0.0,0.0));
#88=VECTOR('',#87,4.0);
#89=LINE('',#86,#88);
#90=EDGE_CURVE('',#85,#74,#89,.T.);
#91=ORIENTED_EDGE('',*,*,#90,.F.);
#92=CARTESIAN_POINT('',(4.0,-98.360679774997919,20.0));
#93=VERTEX_POINT('',#92);
#94=CARTESIAN_POINT('',(4.000000000000001,-76.000000000000014,4.440892E-015));
#95=DIRECTION('',(1.0,0.0,0.0));
#96=DIRECTION('',(0.0,-0.74535599249993,0.666666666666667));
#97=AXIS2_PLACEMENT_3D('',#94,#95,#96);
#98=CIRCLE('',#97,29.999999999999996);
#99=EDGE_CURVE('',#93,#85,#98,.T.);
#100=ORIENTED_EDGE('',*,*,#99,.F.);
#101=CARTESIAN_POINT('',(-8.881784E-016,-98.360679774997919,20.0));
#102=DIRECTION('',(1.0,0.0,0.0));
#103=VECTOR('',#102,4.0);
#104=LINE('',#101,#103);
#105=EDGE_CURVE('',#76,#93,#104,.T.);
#106=ORIENTED_EDGE('',*,*,#105,.F.);
#107=EDGE_LOOP('',(#83,#91,#100,#106));
#108=FACE_OUTER_BOUND('',#107,.T.);
#109=ADVANCED_FACE('',(#108),#72,.T.);
#110=CARTESIAN_POINT('',(4.000000000000001,-13.476106578830706,0.0));
#111=DIRECTION('',(1.0,0.0,0.0));
#112=DIRECTION('',(0.0,0.0,-1.0));
#113=AXIS2_PLACEMENT_3D('',#110,#111,#112);
#114=PLANE('',#113);
#115=ORIENTED_EDGE('',*,*,#99,.T.);
#116=CARTESIAN_POINT('',(4.0,-8.000000000000007,-20.0));
#117=VERTEX_POINT('',#116);
#118=CARTESIAN_POINT('',(4.0,-98.360679774997919,-20.0));
#119=DIRECTION('',(0.0,1.0,0.0));
#120=VECTOR('',#119,90.360679774997905);
#121=LINE('',#118,#120);
#122=EDGE_CURVE('',#85,#117,#121,.T.);
#123=ORIENTED_EDGE('',*,*,#122,.T.);
#124=CARTESIAN_POINT('',(4.0,-8.000000000000007,20.0));
#125=VERTEX_POINT('',#124);
#126=CARTESIAN_POINT('',(4.000000000000001,-8.000000000000007,20.0));
#127=DIRECTION('',(0.0,0.0,-1.0));
#128=VECTOR('',#127,40.0);
#129=LINE('',#126,#128);
#130=EDGE_CURVE('',#125,#117,#129,.T.);
#131=ORIENTED_EDGE('',*,*,#130,.F.);
#132=CARTESIAN_POINT('',(4.0,-98.360679774997919,20.0));
#133=DIRECTION('',(0.0,1.0,0.0));
#134=VECTOR('',#133,90.360679774997905);
#135=LINE('',#132,#134);
#136=EDGE_CURVE('',#93,#125,#135,.T.);
#137=ORIENTED_EDGE('',*,*,#136,.F.);
#138=EDGE_LOOP('',(#115,#123,#131,#137));
#139=FACE_OUTER_BOUND('',#138,.T.);
#140=CARTESIAN_POINT('',(4.0,-85.5,0.0));
#141=VERTEX_POINT('',#140);
#142=CARTESIAN_POINT('',(4.000000000000004,-91.000000000000014,0.0));
#143=DIRECTION('',(-1.0,0.0,0.0));
#144=DIRECTION('',(0.0,1.0,0.0));
#145=AXIS2_PLACEMENT_3D('',#142,#143,#144);
#146=CIRCLE('',#145,5.5);
#147=EDGE_CURVE('',#141,#141,#146,.T.);
#148=ORIENTED_EDGE('',*,*,#147,.T.);
#149=EDGE_LOOP('',(#148));
#150=FACE_BOUND('',#149,.T.);
#151=CARTESIAN_POINT('',(4.0,-45.500000000000014,0.0));
#152=VERTEX_POINT('',#151);
#153=CARTESIAN_POINT('',(4.000000000000004,-51.000000000000014,0.0));
#154=DIRECTION('',(-1.0,0.0,0.0));
#155=DIRECTION('',(0.0,1.0,0.0));
#156=AXIS2_PLACEMENT_3D('',#153,#154,#155);
#157=CIRCLE('',#156,5.5);
#158=EDGE_CURVE('',#152,#152,#157,.T.);
#159=ORIENTED_EDGE('',*,*,#158,.T.);
#160=EDGE_LOOP('',(#159));
#161=FACE_BOUND('',#160,.T.);
#162=ADVANCED_FACE('',(#139,#150,#161),#114,.T.);
#163=CARTESIAN_POINT('',(4.000000000000002,1.047786842338599,-20.0));
#164=DIRECTION('',(0.0,0.0,-1.0));
#165=DIRECTION('',(-1.0,0.0,0.0));
#166=AXIS2_PLACEMENT_3D('',#163,#164,#165);
#167=PLANE('',#166);
#168=ORIENTED_EDGE('',*,*,#90,.T.);
#169=CARTESIAN_POINT('',(1.665335E-015,-8.000000000000005,-20.0));
#170=VERTEX_POINT('',#169);
#171=CARTESIAN_POINT('',(1.665335E-015,-98.360679774997919,-20.0));
#172=DIRECTION('',(0.0,1.0,0.0));
#173=VECTOR('',#172,90.360679774997919);
#174=LINE('',#171,#173);
#175=EDGE_CURVE('',#74,#170,#174,.T.);
#176=ORIENTED_EDGE('',*,*,#175,.T.);
#177=CARTESIAN_POINT('',(4.0,-8.000000000000005,-20.0));
#178=DIRECTION('',(-1.0,0.0,0.0));
#179=VECTOR('',#178,3.999999999999998);
#180=LINE('',#177,#179);
#181=EDGE_CURVE('',#117,#170,#180,.T.);
#182=ORIENTED_EDGE('',*,*,#181,.F.);
#183=ORIENTED_EDGE('',*,*,#122,.F.);
#184=EDGE_LOOP('',(#168,#176,#182,#183));
#185=FACE_OUTER_BOUND('',#184,.T.);
#186=ADVANCED_FACE('',(#185),#167,.T.);
#187=CARTESIAN_POINT('',(56.0,-3.784104E-015,4.440892E-015));
#188=DIRECTION('',(5.586028E-017,-1.0,0.0));
#189=DIRECTION('',(0.74535599249993,4.163579E-017,0.666666666666667));
#190=AXIS2_PLACEMENT_3D('',#187,#188,#189);
#191=CYLINDRICAL_SURFACE('',#190,30.0);
#192=CARTESIAN_POINT('',(78.360679774997891,-4.000000000000003,-20.0));
#193=VERTEX_POINT('',#192);
#194=CARTESIAN_POINT('',(78.360679774997891,-4.000000000000003,20.0));
#195=VERTEX_POINT('',#194);
#196=CARTESIAN_POINT('',(56.0,-4.000000000000004,4.440892E-015));
#197=DIRECTION('',(3.103349E-017,-1.0,2.775720E-017));
#198=DIRECTION('',(0.74535599249993,4.163579E-017,0.666666666666667));
#199=AXIS2_PLACEMENT_3D('',#196,#197,#198);
#200=CIRCLE('',#199,29.999999999999996);
#201=EDGE_CURVE('',#193,#195,#200,.T.);
#202=ORIENTED_EDGE('',*,*,#201,.F.);
#203=CARTESIAN_POINT('',(78.360679774997891,-2.658533E-015,-20.0));
#204=VERTEX_POINT('',#203);
#205=CARTESIAN_POINT('',(78.360679774997891,-2.658533E-015,-20.0));
#206=DIRECTION('',(0.0,-1.0,0.0));
#207=VECTOR('',#206,4.0);
#208=LINE('',#205,#207);
#209=EDGE_CURVE('',#204,#193,#208,.T.);
#210=ORIENTED_EDGE('',*,*,#209,.F.);
#211=CARTESIAN_POINT('',(78.360679774997891,-2.658533E-015,20.0));
#212=VERTEX_POINT('',#211);
#213=CARTESIAN_POINT('',(56.0,-3.438771E-015,4.440892E-015));
#214=DIRECTION('',(-3.103349E-017,1.0,-2.775720E-017));
#215=DIRECTION('',(0.74535599249993,4.163579E-017,0.666666666666667));
#216=AXIS2_PLACEMENT_3D('',#213,#214,#215);
#217=CIRCLE('',#216,29.999999999999996);
#218=EDGE_CURVE('',#212,#204,#217,.T.);
#219=ORIENTED_EDGE('',*,*,#218,.F.);
#220=CARTESIAN_POINT('',(78.360679774997891,-4.000000000000003,20.0));
#221=DIRECTION('',(0.0,1.0,0.0));
#222=VECTOR('',#221,4.0);
#223=LINE('',#220,#222);
#224=EDGE_CURVE('',#195,#212,#223,.T.);
#225=ORIENTED_EDGE('',*,*,#224,.F.);
#226=EDGE_LOOP('',(#202,#210,#219,#225));
#227=FACE_OUTER_BOUND('',#226,.T.);
#228=ADVANCED_FACE('',(#227),#191,.T.);
#229=CARTESIAN_POINT('',(-6.523893421169306,-6.931373E-015,0.0));
#230=DIRECTION('',(0.0,-1.0,0.0));
#231=DIRECTION('',(0.0,0.0,-1.0));
#232=AXIS2_PLACEMENT_3D('',#229,#230,#231);
#233=PLANE('',#232);
#234=ORIENTED_EDGE('',*,*,#218,.T.);
#235=CARTESIAN_POINT('',(8.0,-7.152293E-015,-20.0));
#236=VERTEX_POINT('',#235);
#237=CARTESIAN_POINT('',(8.0,-7.152293E-015,-20.0));
#238=DIRECTION('',(1.0,0.0,0.0));
#239=VECTOR('',#238,70.360679774997891);
#240=LINE('',#237,#239);
#241=EDGE_CURVE('',#236,#204,#240,.T.);
#242=ORIENTED_EDGE('',*,*,#241,.F.);
#243=CARTESIAN_POINT('',(8.000000000000004,-5.486959E-015,20.0));
#244=VERTEX_POINT('',#243);
#245=CARTESIAN_POINT('',(7.999999999999999,-6.180848E-015,-20.0));
#246=DIRECTION('',(0.0,0.0,1.0));
#247=VECTOR('',#246,40.0);
#248=LINE('',#245,#247);
#249=EDGE_CURVE('',#236,#244,#248,.T.);
#250=ORIENTED_EDGE('',*,*,#249,.T.);
#251=CARTESIAN_POINT('',(78.360679774997891,-1.178752E-015,20.0));
#252=DIRECTION('',(-1.0,0.0,0.0));
#253=VECTOR('',#252,70.360679774997891);
#254=LINE('',#251,#253);
#255=EDGE_CURVE('',#212,#244,#254,.T.);
#256=ORIENTED_EDGE('',*,*,#255,.F.);
#257=EDGE_LOOP('',(#234,#242,#250,#256));
#258=FACE_OUTER_BOUND('',#257,.T.);
#259=CARTESIAN_POINT('',(65.499999999999986,-3.305902E-015,0.0));
#260=VERTEX_POINT('',#259);
#261=CARTESIAN_POINT('',(70.999999999999986,0.0,0.0));
#262=DIRECTION('',(0.0,-1.0,0.0));
#263=DIRECTION('',(-1.0,0.0,0.0));
#264=AXIS2_PLACEMENT_3D('',#261,#262,#263);
#265=CIRCLE('',#264,5.5);
#266=EDGE_CURVE('',#260,#260,#265,.T.);
#267=ORIENTED_EDGE('',*,*,#266,.T.);
#268=EDGE_LOOP('',(#267));
#269=FACE_BOUND('',#268,.T.);
#270=CARTESIAN_POINT('',(25.499999999999989,-5.319384E-015,0.0));
#271=VERTEX_POINT('',#270);
#272=CARTESIAN_POINT('',(30.999999999999986,0.0,0.0));
#273=DIRECTION('',(0.0,-1.0,0.0));
#274=DIRECTION('',(-1.0,0.0,0.0));
#275=AXIS2_PLACEMENT_3D('',#272,#273,#274);
#276=CIRCLE('',#275,5.5);
#277=EDGE_CURVE('',#271,#271,#276,.T.);
#278=ORIENTED_EDGE('',*,*,#277,.T.);
#279=EDGE_LOOP('',(#278));
#280=FACE_BOUND('',#279,.T.);
#281=ADVANCED_FACE('',(#258,#269,#280),#233,.F.);
#282=CARTESIAN_POINT('',(8.0,-4.000000000000007,-20.0));
#283=DIRECTION('',(0.0,0.0,-1.0));
#284=DIRECTION('',(0.0,1.0,0.0));
#285=AXIS2_PLACEMENT_3D('',#282,#283,#284);
#286=PLANE('',#285);
#287=ORIENTED_EDGE('',*,*,#209,.T.);
#288=CARTESIAN_POINT('',(8.000000000000004,-4.000000000000005,-20.0));
#289=VERTEX_POINT('',#288);
#290=CARTESIAN_POINT('',(8.0,-4.000000000000006,-20.0));
#291=DIRECTION('',(1.0,0.0,0.0));
#292=VECTOR('',#291,70.360679774997891);
#293=LINE('',#290,#292);
#294=EDGE_CURVE('',#289,#193,#293,.T.);
#295=ORIENTED_EDGE('',*,*,#294,.F.);
#296=CARTESIAN_POINT('',(8.0,-4.000000000000006,-20.0));
#297=DIRECTION('',(0.0,1.0,0.0));
#298=VECTOR('',#297,3.999999999999999);
#299=LINE('',#296,#298);
#300=EDGE_CURVE('',#289,#236,#299,.T.);
#301=ORIENTED_EDGE('',*,*,#300,.T.);
#302=ORIENTED_EDGE('',*,*,#241,.T.);
#303=EDGE_LOOP('',(#287,#295,#301,#302));
#304=FACE_OUTER_BOUND('',#303,.T.);
#305=ADVANCED_FACE('',(#304),#286,.T.);
#306=CARTESIAN_POINT('',(-138.2392350935564,-51.000000000000014,-9.270723E-032));
#307=DIRECTION('',(1.0,-1.089326E-017,6.517697E-034));
#308=DIRECTION('',(0.0,1.0,0.0));
#309=AXIS2_PLACEMENT_3D('',#306,#307,#308);
#310=CYLINDRICAL_SURFACE('',#309,5.5);
#311=CARTESIAN_POINT('',(-5.991294E-017,-56.500000000000014,-6.735557E-016));
#312=VERTEX_POINT('',#311);
#313=CARTESIAN_POINT('',(0.0,-51.000000000000014,-2.607079E-033));
#314=DIRECTION('',(1.0,0.0,0.0));
#315=DIRECTION('',(0.0,1.0,0.0));
#316=AXIS2_PLACEMENT_3D('',#313,#314,#315);
#317=CIRCLE('',#316,5.5);
#318=EDGE_CURVE('',#312,#312,#317,.T.);
#319=ORIENTED_EDGE('',*,*,#318,.F.);
#320=EDGE_LOOP('',(#319));
#321=FACE_OUTER_BOUND('',#320,.T.);
#322=ORIENTED_EDGE('',*,*,#158,.F.);
#323=EDGE_LOOP('',(#322));
#324=FACE_BOUND('',#323,.T.);
#325=ADVANCED_FACE('',(#321,#324),#310,.F.);
#326=CARTESIAN_POINT('',(-138.2392350935564,-91.000000000000014,-9.270723E-032));
#327=DIRECTION('',(1.0,-1.089326E-017,6.517697E-034));
#328=DIRECTION('',(0.0,1.0,0.0));
#329=AXIS2_PLACEMENT_3D('',#326,#327,#328);
#330=CYLINDRICAL_SURFACE('',#329,5.5);
#331=CARTESIAN_POINT('',(-5.991294E-017,-96.500000000000028,-6.735557E-016));
#332=VERTEX_POINT('',#331);
#333=CARTESIAN_POINT('',(0.0,-91.000000000000014,-2.607079E-033));
#334=DIRECTION('',(1.0,0.0,0.0));
#335=DIRECTION('',(0.0,1.0,0.0));
#336=AXIS2_PLACEMENT_3D('',#333,#334,#335);
#337=CIRCLE('',#336,5.5);
#338=EDGE_CURVE('',#332,#332,#337,.T.);
#339=ORIENTED_EDGE('',*,*,#338,.F.);
#340=EDGE_LOOP('',(#339));
#341=FACE_OUTER_BOUND('',#340,.T.);
#342=ORIENTED_EDGE('',*,*,#147,.F.);
#343=EDGE_LOOP('',(#342));
#344=FACE_BOUND('',#343,.T.);
#345=ADVANCED_FACE('',(#341,#344),#330,.F.);
#346=CARTESIAN_POINT('',(30.999999999999996,-142.2392350935564,-9.270723E-032));
#347=DIRECTION('',(-5.033706E-017,1.0,6.517697E-034));
#348=DIRECTION('',(-1.0,0.0,0.0));
#349=AXIS2_PLACEMENT_3D('',#346,#347,#348);
#350=CYLINDRICAL_SURFACE('',#349,5.5);
#351=CARTESIAN_POINT('',(36.499999999999986,-4.000000000000004,-6.735557E-016));
#352=VERTEX_POINT('',#351);
#353=CARTESIAN_POINT('',(30.999999999999986,-4.000000000000004,-2.607079E-033));
#354=DIRECTION('',(0.0,1.0,0.0));
#355=DIRECTION('',(-1.0,0.0,0.0));
#356=AXIS2_PLACEMENT_3D('',#353,#354,#355);
#357=CIRCLE('',#356,5.5);
#358=EDGE_CURVE('',#352,#352,#357,.T.);
#359=ORIENTED_EDGE('',*,*,#358,.F.);
#360=EDGE_LOOP('',(#359));
#361=FACE_OUTER_BOUND('',#360,.T.);
#362=ORIENTED_EDGE('',*,*,#277,.F.);
#363=EDGE_LOOP('',(#362));
#364=FACE_BOUND('',#363,.T.);
#365=ADVANCED_FACE('',(#361,#364),#350,.F.);
#366=CARTESIAN_POINT('',(71.0,-142.2392350935564,-9.270723E-032));
#367=DIRECTION('',(-5.033706E-017,1.0,6.517697E-034));
#368=DIRECTION('',(-1.0,0.0,0.0));
#369=AXIS2_PLACEMENT_3D('',#366,#367,#368);
#370=CYLINDRICAL_SURFACE('',#369,5.5);
#371=CARTESIAN_POINT('',(76.499999999999986,-4.000000000000004,-6.735557E-016));
#372=VERTEX_POINT('',#371);
#373=CARTESIAN_POINT('',(70.999999999999986,-4.000000000000004,-2.607079E-033));
#374=DIRECTION('',(0.0,1.0,0.0));
#375=DIRECTION('',(-1.0,0.0,0.0));
#376=AXIS2_PLACEMENT_3D('',#373,#374,#375);
#377=CIRCLE('',#376,5.5);
#378=EDGE_CURVE('',#372,#372,#377,.T.);
#379=ORIENTED_EDGE('',*,*,#378,.F.);
#380=EDGE_LOOP('',(#379));
#381=FACE_OUTER_BOUND('',#380,.T.);
#382=ORIENTED_EDGE('',*,*,#266,.F.);
#383=EDGE_LOOP('',(#382));
#384=FACE_BOUND('',#383,.T.);
#385=ADVANCED_FACE('',(#381,#384),#370,.F.);
#386=CARTESIAN_POINT('',(8.0,-8.000000000000005,20.0));
#387=DIRECTION('',(0.0,0.0,-1.0));
#388=DIRECTION('',(0.0,1.0,0.0));
#389=AXIS2_PLACEMENT_3D('',#386,#387,#388);
#390=CYLINDRICAL_SURFACE('',#389,4.0);
#391=CARTESIAN_POINT('',(8.000000000000004,-4.000000000000005,20.0));
#392=VERTEX_POINT('',#391);
#393=CARTESIAN_POINT('',(7.999999999999999,-4.000000000000006,20.0));
#394=DIRECTION('',(0.0,0.0,-1.0));
#395=VECTOR('',#394,40.0);
#396=LINE('',#393,#395);
#397=EDGE_CURVE('',#392,#289,#396,.T.);
#398=ORIENTED_EDGE('',*,*,#397,.F.);
#399=CARTESIAN_POINT('',(8.0,-8.000000000000005,20.0));
#400=DIRECTION('',(0.0,0.0,-1.0));
#401=DIRECTION('',(-1.0,0.0,0.0));
#402=AXIS2_PLACEMENT_3D('',#399,#400,#401);
#403=CIRCLE('',#402,4.0);
#404=EDGE_CURVE('',#125,#392,#403,.T.);
#405=ORIENTED_EDGE('',*,*,#404,.F.);
#406=ORIENTED_EDGE('',*,*,#130,.T.);
#407=CARTESIAN_POINT('',(8.0,-8.000000000000005,-20.0));
#408=DIRECTION('',(0.0,0.0,-1.0));
#409=DIRECTION('',(-1.0,0.0,0.0));
#410=AXIS2_PLACEMENT_3D('',#407,#408,#409);
#411=CIRCLE('',#410,4.0);
#412=EDGE_CURVE('',#117,#289,#411,.T.);
#413=ORIENTED_EDGE('',*,*,#412,.T.);
#414=EDGE_LOOP('',(#398,#405,#406,#413));
#415=FACE_OUTER_BOUND('',#414,.T.);
#416=ADVANCED_FACE('',(#415),#390,.F.);
#417=CARTESIAN_POINT('',(8.000000000000005,-5.551115E-015,20.0));
#418=DIRECTION('',(0.0,0.0,1.0));
#419=DIRECTION('',(1.0,0.0,0.0));
#420=AXIS2_PLACEMENT_3D('',#417,#418,#419);
#421=PLANE('',#420);
#422=CARTESIAN_POINT('',(8.0,-5.329071E-015,20.0));
#423=DIRECTION('',(0.0,-1.0,0.0));
#424=VECTOR('',#423,4.0);
#425=LINE('',#422,#424);
#426=EDGE_CURVE('',#244,#392,#425,.T.);
#427=ORIENTED_EDGE('',*,*,#426,.F.);
#428=CARTESIAN_POINT('',(0.0,-8.000000000000007,20.0));
#429=VERTEX_POINT('',#428);
#430=CARTESIAN_POINT('',(8.0,-8.000000000000005,20.0));
#431=DIRECTION('',(0.0,0.0,1.0));
#432=DIRECTION('',(0.0,1.0,0.0));
#433=AXIS2_PLACEMENT_3D('',#430,#431,#432);
#434=CIRCLE('',#433,8.0);
#435=EDGE_CURVE('',#244,#429,#434,.T.);
#436=ORIENTED_EDGE('',*,*,#435,.T.);
#437=CARTESIAN_POINT('',(0.0,-8.000000000000007,20.0));
#438=DIRECTION('',(1.0,0.0,0.0));
#439=VECTOR('',#438,4.0);
#440=LINE('',#437,#439);
#441=EDGE_CURVE('',#429,#125,#440,.T.);
#442=ORIENTED_EDGE('',*,*,#441,.T.);
#443=ORIENTED_EDGE('',*,*,#404,.T.);
#444=EDGE_LOOP('',(#427,#436,#442,#443));
#445=FACE_OUTER_BOUND('',#444,.T.);
#446=ADVANCED_FACE('',(#445),#421,.T.);
#447=CARTESIAN_POINT('',(5.551115E-016,-13.476106578830706,0.0));
#448=DIRECTION('',(1.0,0.0,0.0));
#449=DIRECTION('',(0.0,0.0,-1.0));
#450=AXIS2_PLACEMENT_3D('',#447,#448,#449);
#451=PLANE('',#450);
#452=ORIENTED_EDGE('',*,*,#82,.T.);
#453=CARTESIAN_POINT('',(0.0,-8.000000000000014,20.0));
#454=DIRECTION('',(0.0,-1.0,0.0));
#455=VECTOR('',#454,90.360679774997905);
#456=LINE('',#453,#455);
#457=EDGE_CURVE('',#429,#76,#456,.T.);
#458=ORIENTED_EDGE('',*,*,#457,.F.);
#459=CARTESIAN_POINT('',(5.551115E-016,-8.000000000000007,-20.0));
#460=DIRECTION('',(0.0,0.0,1.0));
#461=VECTOR('',#460,40.0);
#462=LINE('',#459,#461);
#463=EDGE_CURVE('',#170,#429,#462,.T.);
#464=ORIENTED_EDGE('',*,*,#463,.F.);
#465=ORIENTED_EDGE('',*,*,#175,.F.);
#466=EDGE_LOOP('',(#452,#458,#464,#465));
#467=FACE_OUTER_BOUND('',#466,.T.);
#468=ORIENTED_EDGE('',*,*,#318,.T.);
#469=EDGE_LOOP('',(#468));
#470=FACE_BOUND('',#469,.T.);
#471=ORIENTED_EDGE('',*,*,#338,.T.);
#472=EDGE_LOOP('',(#471));
#473=FACE_BOUND('',#472,.T.);
#474=ADVANCED_FACE('',(#467,#470,#473),#451,.F.);
#475=CARTESIAN_POINT('',(-1.047786842338606,-4.000000000000006,20.0));
#476=DIRECTION('',(0.0,0.0,1.0));
#477=DIRECTION('',(0.0,-1.0,0.0));
#478=AXIS2_PLACEMENT_3D('',#475,#476,#477);
#479=PLANE('',#478);
#480=ORIENTED_EDGE('',*,*,#224,.T.);
#481=ORIENTED_EDGE('',*,*,#255,.T.);
#482=ORIENTED_EDGE('',*,*,#426,.T.);
#483=CARTESIAN_POINT('',(8.0,-4.000000000000006,20.0));
#484=DIRECTION('',(1.0,0.0,0.0));
#485=VECTOR('',#484,70.360679774997891);
#486=LINE('',#483,#485);
#487=EDGE_CURVE('',#392,#195,#486,.T.);
#488=ORIENTED_EDGE('',*,*,#487,.T.);
#489=EDGE_LOOP('',(#480,#481,#482,#488));
#490=FACE_OUTER_BOUND('',#489,.T.);
#491=ADVANCED_FACE('',(#490),#479,.T.);
#492=CARTESIAN_POINT('',(-6.523893421169306,-4.000000000000007,0.0));
#493=DIRECTION('',(0.0,-1.0,0.0));
#494=DIRECTION('',(0.0,0.0,-1.0));
#495=AXIS2_PLACEMENT_3D('',#492,#493,#494);
#496=PLANE('',#495);
#497=ORIENTED_EDGE('',*,*,#201,.T.);
#498=ORIENTED_EDGE('',*,*,#487,.F.);
#499=ORIENTED_EDGE('',*,*,#397,.T.);
#500=ORIENTED_EDGE('',*,*,#294,.T.);
#501=EDGE_LOOP('',(#497,#498,#499,#500));
#502=FACE_OUTER_BOUND('',#501,.T.);
#503=ORIENTED_EDGE('',*,*,#358,.T.);
#504=EDGE_LOOP('',(#503));
#505=FACE_BOUND('',#504,.T.);
#506=ORIENTED_EDGE('',*,*,#378,.T.);
#507=EDGE_LOOP('',(#506));
#508=FACE_BOUND('',#507,.T.);
#509=ADVANCED_FACE('',(#502,#505,#508),#496,.T.);
#510=CARTESIAN_POINT('',(4.0,-8.000000000000007,20.0));
#511=DIRECTION('',(0.0,0.0,1.0));
#512=DIRECTION('',(1.0,0.0,0.0));
#513=AXIS2_PLACEMENT_3D('',#510,#511,#512);
#514=PLANE('',#513);
#515=ORIENTED_EDGE('',*,*,#105,.T.);
#516=ORIENTED_EDGE('',*,*,#136,.T.);
#517=ORIENTED_EDGE('',*,*,#441,.F.);
#518=ORIENTED_EDGE('',*,*,#457,.T.);
#519=EDGE_LOOP('',(#515,#516,#517,#518));
#520=FACE_OUTER_BOUND('',#519,.T.);
#521=ADVANCED_FACE('',(#520),#514,.T.);
#522=CARTESIAN_POINT('',(8.000000000000004,-4.000000000000005,-20.0));
#523=DIRECTION('',(0.0,0.0,-1.0));
#524=DIRECTION('',(-1.0,0.0,0.0));
#525=AXIS2_PLACEMENT_3D('',#522,#523,#524);
#526=PLANE('',#525);
#527=ORIENTED_EDGE('',*,*,#300,.F.);
#528=ORIENTED_EDGE('',*,*,#412,.F.);
#529=ORIENTED_EDGE('',*,*,#181,.T.);
#530=CARTESIAN_POINT('',(8.0,-8.000000000000005,-20.0));
#531=DIRECTION('',(0.0,0.0,-1.0));
#532=DIRECTION('',(-1.0,0.0,0.0));
#533=AXIS2_PLACEMENT_3D('',#530,#531,#532);
#534=CIRCLE('',#533,7.999999999999998);
#535=EDGE_CURVE('',#170,#236,#534,.T.);
#536=ORIENTED_EDGE('',*,*,#535,.T.);
#537=EDGE_LOOP('',(#527,#528,#529,#536));
#538=FACE_OUTER_BOUND('',#537,.T.);
#539=ADVANCED_FACE('',(#538),#526,.T.);
#540=CARTESIAN_POINT('',(8.0,-8.000000000000005,-20.0));
#541=DIRECTION('',(0.0,0.0,-1.0));
#542=DIRECTION('',(0.0,1.0,0.0));
#543=AXIS2_PLACEMENT_3D('',#540,#541,#542);
#544=CYLINDRICAL_SURFACE('',#543,7.999999999999999);
#545=ORIENTED_EDGE('',*,*,#249,.F.);
#546=ORIENTED_EDGE('',*,*,#535,.F.);
#547=ORIENTED_EDGE('',*,*,#463,.T.);
#548=ORIENTED_EDGE('',*,*,#435,.F.);
#549=EDGE_LOOP('',(#545,#546,#547,#548));
#550=FACE_OUTER_BOUND('',#549,.T.);
#551=ADVANCED_FACE('',(#550),#544,.T.);
#552=CLOSED_SHELL('',(#109,#162,#186,#228,#281,#305,#325,#345,#365,#385,#416,#446,#474,#491,#509,#521,#539,#551));
#553=MANIFOLD_SOLID_BREP('Volumenk\S\vrper1',#552);
#554=COLOUR_RGB('',0.639216005802155,0.639216005802155,0.686275005340576);
#555=FILL_AREA_STYLE_COLOUR('',#554);
#556=FILL_AREA_STYLE('',(#555));
#557=SURFACE_STYLE_FILL_AREA(#556);
#558=SURFACE_SIDE_STYLE('',(#557));
#559=SURFACE_STYLE_USAGE(.BOTH.,#558);
#560=PRESENTATION_STYLE_ASSIGNMENT((#559));
#561=STYLED_ITEM('',(#560),#109);
#562=STYLED_ITEM('',(#560),#162);
#563=STYLED_ITEM('',(#560),#186);
#564=STYLED_ITEM('',(#560),#228);
#565=STYLED_ITEM('',(#560),#281);
#566=STYLED_ITEM('',(#560),#305);
#567=STYLED_ITEM('',(#560),#325);
#568=STYLED_ITEM('',(#560),#345);
#569=STYLED_ITEM('',(#560),#365);
#570=STYLED_ITEM('',(#560),#385);
#571=STYLED_ITEM('',(#560),#416);
#572=STYLED_ITEM('',(#560),#446);
#573=STYLED_ITEM('',(#560),#474);
#574=STYLED_ITEM('',(#560),#491);
#575=STYLED_ITEM('',(#560),#509);
#576=STYLED_ITEM('',(#560),#521);
#577=STYLED_ITEM('',(#560),#539);
#578=STYLED_ITEM('',(#560),#551);
#579=MECHANICAL_DESIGN_GEOMETRIC_PRESENTATION_REPRESENTATION('',(#561,#562,#563,#564,#565,#566,#567,#568,#569,#570,#571,#572,#573,#574,#575,#576,#577,#578,#587),#67);
#580=COLOUR_RGB('Standard',0.752941012382507,0.752941012382507,0.752941012382507);
#581=FILL_AREA_STYLE_COLOUR('Standard',#580);
#582=FILL_AREA_STYLE('Standard',(#581));
#583=SURFACE_STYLE_FILL_AREA(#582);
#584=SURFACE_SIDE_STYLE('Standard',(#583));
#585=SURFACE_STYLE_USAGE(.BOTH.,#584);
#586=PRESENTATION_STYLE_ASSIGNMENT((#585));
#587=STYLED_ITEM('',(#586),#553);
#588=ADVANCED_BREP_SHAPE_REPRESENTATION('ABSR',(#553),#36);
#589=SHAPE_REPRESENTATION_RELATIONSHIP('SRR','None',#588,#41);
ENDSEC;
END-ISO-10303-21;
