ISO-10303-21;
HEADER;
FILE_DESCRIPTION( ( 'STEP AP203' ), '1' );
FILE_NAME( 'p:/temp/worker_43/temp/exporttempdir_860_194_v0D4i/format_0/30057504007(architecture400).stp', '2022-04-13T12:27:29', ( 'License CC BY-ND 4.0' ), ( 'CADENAS' ), ' ', 'PARTsolutions', ' ' );
FILE_SCHEMA( ( 'CONFIG_CONTROL_DESIGN' ) );
ENDSEC;
DATA;
#1 = DESIGN_CONTEXT( '', #27, 'design' );
#2 = APPLICATION_PROTOCOL_DEFINITION( 'international standard', 'config_control_design', 1994, #27 );
#3 = PRODUCT_CATEGORY_RELATIONSHIP( 'NONE', 'NONE', #28, #29 );
#4 = DATE_AND_TIME( #30, #31 );
#5 = DATE_TIME_ROLE( 'creation_date' );
#6 = DATE_TIME_ROLE( 'classification_date' );
#7 = PERSON_AND_ORGANIZATION_ROLE( 'creator' );
#8 = PERSON_AND_ORGANIZATION_ROLE( 'design_supplier' );
#9 = PERSON_AND_ORGANIZATION_ROLE( 'classification_officer' );
#10 = PERSON_AND_ORGANIZATION_ROLE( 'design_owner' );
#11 = APPROVAL_PERSON_ORGANIZATION( #32, #33, #34 );
#12 = APPROVAL_DATE_TIME( #4, #33 );
#13 = CC_DESIGN_APPROVAL( #33, ( #35, #36, #37 ) );
#14 = CC_DESIGN_DATE_AND_TIME_ASSIGNMENT( #4, #5, ( #37 ) );
#15 = CC_DESIGN_DATE_AND_TIME_ASSIGNMENT( #4, #6, ( #35 ) );
#16 = CC_DESIGN_PERSON_AND_ORGANIZATION_ASSIGNMENT( #32, #10, ( #38 ) );
#17 = CC_DESIGN_PERSON_AND_ORGANIZATION_ASSIGNMENT( #32, #7, ( #37 ) );
#18 = CC_DESIGN_PERSON_AND_ORGANIZATION_ASSIGNMENT( #32, #7, ( #36 ) );
#19 = CC_DESIGN_PERSON_AND_ORGANIZATION_ASSIGNMENT( #32, #8, ( #36 ) );
#20 = CC_DESIGN_SECURITY_CLASSIFICATION( #35, ( #36 ) );
#21 = CC_DESIGN_PERSON_AND_ORGANIZATION_ASSIGNMENT( #32, #9, ( #35 ) );
#22 = SHAPE_DEFINITION_REPRESENTATION( #39, #40 );
#23 =  ( GEOMETRIC_REPRESENTATION_CONTEXT( 3 )GLOBAL_UNCERTAINTY_ASSIGNED_CONTEXT( ( #43 ) )GLOBAL_UNIT_ASSIGNED_CONTEXT( ( #45, #46, #47 ) )REPRESENTATION_CONTEXT( 'NONE', 'WORKSPACE' ) );
#27 = APPLICATION_CONTEXT( 'configuration controlled 3D designs of mechanical parts and assemblies' );
#28 = PRODUCT_CATEGORY( 'part', 'NONE' );
#29 = PRODUCT_RELATED_PRODUCT_CATEGORY( 'detail', ' ', ( #38 ) );
#30 = CALENDAR_DATE( 2022, 13, 3 );
#31 = LOCAL_TIME( 14, 27, 29.0000000000000, #49 );
#32 = PERSON_AND_ORGANIZATION( #50, #51 );
#33 = APPROVAL( #52, 'SOLID MODEL' );
#34 = APPROVAL_ROLE( 'APPROVED' );
#35 = SECURITY_CLASSIFICATION( '', '', #53 );
#36 = PRODUCT_DEFINITION_FORMATION_WITH_SPECIFIED_SOURCE( ' ', 'NONE', #38, .NOT_KNOWN. );
#37 = PRODUCT_DEFINITION( 'NONE', 'NONE', #36, #1 );
#38 = PRODUCT( '_30057504007(architecture400)', '_30057504007(architecture400)', 'PART-_30057504007(architecture400)-DESC', ( #54 ) );
#39 = PRODUCT_DEFINITION_SHAPE( 'NONE', 'NONE', #37 );
#40 = ADVANCED_BREP_SHAPE_REPRESENTATION( '_30057504007(architecture400)', ( #55, #56 ), #23 );
#43 = UNCERTAINTY_MEASURE_WITH_UNIT( LENGTH_MEASURE( 0.00100000000000000 ), #45, '', '' );
#45 =  ( CONVERSION_BASED_UNIT( 'MILLIMETRE', #59 )LENGTH_UNIT(  )NAMED_UNIT( #62 ) );
#46 =  ( NAMED_UNIT( #64 )PLANE_ANGLE_UNIT(  )SI_UNIT( $, .RADIAN. ) );
#47 =  ( NAMED_UNIT( #64 )SI_UNIT( $, .STERADIAN. )SOLID_ANGLE_UNIT(  ) );
#49 = COORDINATED_UNIVERSAL_TIME_OFFSET( 1, 0, .AHEAD. );
#50 = PERSON( '', 'UNSPECIFIED', $, $, $, $ );
#51 = ORGANIZATION( 'UNSPECIFIED', 'UNSPECIFIED', 'UNSPECIFIED' );
#52 = APPROVAL_STATUS( 'approved' );
#53 = SECURITY_CLASSIFICATION_LEVEL( 'unclassified' );
#54 = MECHANICAL_CONTEXT( '', #27, 'mechanical' );
#55 = MANIFOLD_SOLID_BREP( '_30057504007(architecture400)', #70 );
#56 = AXIS2_PLACEMENT_3D( '', #71, #72, #73 );
#59 = LENGTH_MEASURE_WITH_UNIT( LENGTH_MEASURE( 1.00000000000000 ), #74 );
#62 = DIMENSIONAL_EXPONENTS( 1.00000000000000, 0.000000000000000, 0.000000000000000, 0.000000000000000, 0.000000000000000, 0.000000000000000, 0.000000000000000 );
#64 = DIMENSIONAL_EXPONENTS( 0.000000000000000, 0.000000000000000, 0.000000000000000, 0.000000000000000, 0.000000000000000, 0.000000000000000, 0.000000000000000 );
#70 = CLOSED_SHELL( '', ( #75, #76, #77, #78, #79, #80, #81, #82, #83, #84, #85, #86, #87 ) );
#71 = CARTESIAN_POINT( '', ( 0.000000000000000, 0.000000000000000, 0.000000000000000 ) );
#72 = DIRECTION( '', ( 0.000000000000000, 0.000000000000000, 1.00000000000000 ) );
#73 = DIRECTION( '', ( 1.00000000000000, 0.000000000000000, 0.000000000000000 ) );
#74 =  ( LENGTH_UNIT(  )NAMED_UNIT( #62 )SI_UNIT( .MILLI., .METRE. ) );
#75 = ADVANCED_FACE( '', ( #89, #90 ), #91, .T. );
#76 = ADVANCED_FACE( '', ( #92, #93 ), #94, .T. );
#77 = ADVANCED_FACE( '', ( #95, #96 ), #97, .F. );
#78 = ADVANCED_FACE( '', ( #98, #99 ), #100, .F. );
#79 = ADVANCED_FACE( '', ( #101, #102 ), #103, .T. );
#80 = ADVANCED_FACE( '', ( #104, #105 ), #106, .F. );
#81 = ADVANCED_FACE( '', ( #107, #108 ), #109, .T. );
#82 = ADVANCED_FACE( '', ( #110, #111 ), #112, .F. );
#83 = ADVANCED_FACE( '', ( #113, #114 ), #115, .T. );
#84 = ADVANCED_FACE( '', ( #116, #117 ), #118, .T. );
#85 = ADVANCED_FACE( '', ( #119, #120 ), #121, .T. );
#86 = ADVANCED_FACE( '', ( #122, #123 ), #124, .T. );
#87 = ADVANCED_FACE( '', ( #125, #126 ), #127, .T. );
#89 = FACE_OUTER_BOUND( '', #128, .T. );
#90 = FACE_OUTER_BOUND( '', #129, .T. );
#91 = CYLINDRICAL_SURFACE( '', #130, 23.9166666667000 );
#92 = FACE_BOUND( '', #131, .T. );
#93 = FACE_OUTER_BOUND( '', #132, .T. );
#94 = PLANE( '', #133 );
#95 = FACE_OUTER_BOUND( '', #134, .T. );
#96 = FACE_OUTER_BOUND( '', #135, .T. );
#97 = CYLINDRICAL_SURFACE( '', #136, 18.5000000000000 );
#98 = FACE_OUTER_BOUND( '', #137, .T. );
#99 = FACE_BOUND( '', #138, .T. );
#100 = CONICAL_SURFACE( '', #139, 18.5000000000000, 0.291456794500000 );
#101 = FACE_BOUND( '', #140, .T. );
#102 = FACE_OUTER_BOUND( '', #141, .T. );
#103 = PLANE( '', #142 );
#104 = FACE_OUTER_BOUND( '', #143, .T. );
#105 = FACE_OUTER_BOUND( '', #144, .T. );
#106 = CYLINDRICAL_SURFACE( '', #145, 17.8333333333000 );
#107 = FACE_OUTER_BOUND( '', #146, .T. );
#108 = FACE_BOUND( '', #147, .T. );
#109 = PLANE( '', #148 );
#110 = FACE_OUTER_BOUND( '', #149, .T. );
#111 = FACE_OUTER_BOUND( '', #150, .T. );
#112 = CYLINDRICAL_SURFACE( '', #151, 20.0000000000000 );
#113 = FACE_OUTER_BOUND( '', #152, .T. );
#114 = FACE_BOUND( '', #153, .T. );
#115 = PLANE( '', #154 );
#116 = FACE_OUTER_BOUND( '', #155, .T. );
#117 = FACE_OUTER_BOUND( '', #156, .T. );
#118 = CYLINDRICAL_SURFACE( '', #157, 26.5000000000000 );
#119 = FACE_BOUND( '', #158, .T. );
#120 = FACE_OUTER_BOUND( '', #159, .T. );
#121 = CONICAL_SURFACE( '', #160, 26.5000000000000, 0.291456794500000 );
#122 = FACE_OUTER_BOUND( '', #161, .T. );
#123 = FACE_OUTER_BOUND( '', #162, .T. );
#124 = CYLINDRICAL_SURFACE( '', #163, 25.0000000000000 );
#125 = FACE_BOUND( '', #164, .T. );
#126 = FACE_OUTER_BOUND( '', #165, .T. );
#127 = CONICAL_SURFACE( '', #166, 25.0000000000000, 0.785398163400000 );
#128 = EDGE_LOOP( '', ( #167 ) );
#129 = EDGE_LOOP( '', ( #168 ) );
#130 = AXIS2_PLACEMENT_3D( '', #169, #170, #171 );
#131 = EDGE_LOOP( '', ( #172 ) );
#132 = EDGE_LOOP( '', ( #173 ) );
#133 = AXIS2_PLACEMENT_3D( '', #174, #175, #176 );
#134 = EDGE_LOOP( '', ( #177 ) );
#135 = EDGE_LOOP( '', ( #178 ) );
#136 = AXIS2_PLACEMENT_3D( '', #179, #180, #181 );
#137 = EDGE_LOOP( '', ( #182 ) );
#138 = EDGE_LOOP( '', ( #183 ) );
#139 = AXIS2_PLACEMENT_3D( '', #184, #185, #186 );
#140 = EDGE_LOOP( '', ( #187 ) );
#141 = EDGE_LOOP( '', ( #188 ) );
#142 = AXIS2_PLACEMENT_3D( '', #189, #190, #191 );
#143 = EDGE_LOOP( '', ( #192 ) );
#144 = EDGE_LOOP( '', ( #193 ) );
#145 = AXIS2_PLACEMENT_3D( '', #194, #195, #196 );
#146 = EDGE_LOOP( '', ( #197 ) );
#147 = EDGE_LOOP( '', ( #198 ) );
#148 = AXIS2_PLACEMENT_3D( '', #199, #200, #201 );
#149 = EDGE_LOOP( '', ( #202 ) );
#150 = EDGE_LOOP( '', ( #203 ) );
#151 = AXIS2_PLACEMENT_3D( '', #204, #205, #206 );
#152 = EDGE_LOOP( '', ( #207 ) );
#153 = EDGE_LOOP( '', ( #208 ) );
#154 = AXIS2_PLACEMENT_3D( '', #209, #210, #211 );
#155 = EDGE_LOOP( '', ( #212 ) );
#156 = EDGE_LOOP( '', ( #213 ) );
#157 = AXIS2_PLACEMENT_3D( '', #214, #215, #216 );
#158 = EDGE_LOOP( '', ( #217 ) );
#159 = EDGE_LOOP( '', ( #218 ) );
#160 = AXIS2_PLACEMENT_3D( '', #219, #220, #221 );
#161 = EDGE_LOOP( '', ( #222 ) );
#162 = EDGE_LOOP( '', ( #223 ) );
#163 = AXIS2_PLACEMENT_3D( '', #224, #225, #226 );
#164 = EDGE_LOOP( '', ( #227 ) );
#165 = EDGE_LOOP( '', ( #228 ) );
#166 = AXIS2_PLACEMENT_3D( '', #229, #230, #231 );
#167 = ORIENTED_EDGE( '', *, *, #232, .T. );
#168 = ORIENTED_EDGE( '', *, *, #233, .F. );
#169 = CARTESIAN_POINT( '', ( 25.0000000000000, 0.000000000000000, 0.000000000000000 ) );
#170 = DIRECTION( '', ( -1.00000000000000, -0.000000000000000, 0.000000000000000 ) );
#171 = DIRECTION( '', ( -0.000000000000000, 0.000000000000000, -1.00000000000000 ) );
#172 = ORIENTED_EDGE( '', *, *, #234, .T. );
#173 = ORIENTED_EDGE( '', *, *, #232, .F. );
#174 = CARTESIAN_POINT( '', ( -30.0000000000000, 23.9166666666667, 0.000000000000000 ) );
#175 = DIRECTION( '', ( -1.00000000000000, 0.000000000000000, 0.000000000000000 ) );
#176 = DIRECTION( '', ( 0.000000000000000, 0.000000000000000, 1.00000000000000 ) );
#177 = ORIENTED_EDGE( '', *, *, #235, .T. );
#178 = ORIENTED_EDGE( '', *, *, #234, .F. );
#179 = CARTESIAN_POINT( '', ( 25.0000000000000, 0.000000000000000, 0.000000000000000 ) );
#180 = DIRECTION( '', ( -1.00000000000000, -0.000000000000000, 0.000000000000000 ) );
#181 = DIRECTION( '', ( -0.000000000000000, 0.000000000000000, -1.00000000000000 ) );
#182 = ORIENTED_EDGE( '', *, *, #236, .T. );
#183 = ORIENTED_EDGE( '', *, *, #235, .F. );
#184 = CARTESIAN_POINT( '', ( -8.12500000000000, 0.000000000000000, 0.000000000000000 ) );
#185 = DIRECTION( '', ( 1.00000000000000, -0.000000000000000, -0.000000000000000 ) );
#186 = DIRECTION( '', ( -0.000000000000000, 0.000000000000000, -1.00000000000000 ) );
#187 = ORIENTED_EDGE( '', *, *, #237, .T. );
#188 = ORIENTED_EDGE( '', *, *, #236, .F. );
#189 = CARTESIAN_POINT( '', ( -3.12500000000000, 20.0000000000000, 0.000000000000000 ) );
#190 = DIRECTION( '', ( -1.00000000000000, 0.000000000000000, 0.000000000000000 ) );
#191 = DIRECTION( '', ( 0.000000000000000, 0.000000000000000, 1.00000000000000 ) );
#192 = ORIENTED_EDGE( '', *, *, #238, .T. );
#193 = ORIENTED_EDGE( '', *, *, #237, .F. );
#194 = CARTESIAN_POINT( '', ( 25.0000000000000, 0.000000000000000, 0.000000000000000 ) );
#195 = DIRECTION( '', ( -1.00000000000000, -0.000000000000000, 0.000000000000000 ) );
#196 = DIRECTION( '', ( -0.000000000000000, 0.000000000000000, -1.00000000000000 ) );
#197 = ORIENTED_EDGE( '', *, *, #239, .T. );
#198 = ORIENTED_EDGE( '', *, *, #238, .F. );
#199 = CARTESIAN_POINT( '', ( 0.000000000000000, 17.8333333333333, 0.000000000000000 ) );
#200 = DIRECTION( '', ( 1.00000000000000, 0.000000000000000, -0.000000000000000 ) );
#201 = DIRECTION( '', ( -0.000000000000000, 0.000000000000000, -1.00000000000000 ) );
#202 = ORIENTED_EDGE( '', *, *, #240, .T. );
#203 = ORIENTED_EDGE( '', *, *, #239, .F. );
#204 = CARTESIAN_POINT( '', ( 25.0000000000000, 0.000000000000000, 0.000000000000000 ) );
#205 = DIRECTION( '', ( -1.00000000000000, -0.000000000000000, 0.000000000000000 ) );
#206 = DIRECTION( '', ( -0.000000000000000, 0.000000000000000, -1.00000000000000 ) );
#207 = ORIENTED_EDGE( '', *, *, #241, .T. );
#208 = ORIENTED_EDGE( '', *, *, #240, .F. );
#209 = CARTESIAN_POINT( '', ( 25.0000000000000, 20.0000000000000, 0.000000000000000 ) );
#210 = DIRECTION( '', ( 1.00000000000000, 0.000000000000000, -0.000000000000000 ) );
#211 = DIRECTION( '', ( -0.000000000000000, 0.000000000000000, -1.00000000000000 ) );
#212 = ORIENTED_EDGE( '', *, *, #242, .T. );
#213 = ORIENTED_EDGE( '', *, *, #241, .F. );
#214 = CARTESIAN_POINT( '', ( 25.0000000000000, 0.000000000000000, 0.000000000000000 ) );
#215 = DIRECTION( '', ( -1.00000000000000, -0.000000000000000, 0.000000000000000 ) );
#216 = DIRECTION( '', ( -0.000000000000000, 0.000000000000000, -1.00000000000000 ) );
#217 = ORIENTED_EDGE( '', *, *, #243, .T. );
#218 = ORIENTED_EDGE( '', *, *, #242, .F. );
#219 = CARTESIAN_POINT( '', ( 0.000000000000000, 0.000000000000000, 0.000000000000000 ) );
#220 = DIRECTION( '', ( 1.00000000000000, -0.000000000000000, -0.000000000000000 ) );
#221 = DIRECTION( '', ( -0.000000000000000, 0.000000000000000, -1.00000000000000 ) );
#222 = ORIENTED_EDGE( '', *, *, #244, .T. );
#223 = ORIENTED_EDGE( '', *, *, #243, .F. );
#224 = CARTESIAN_POINT( '', ( 25.0000000000000, 0.000000000000000, 0.000000000000000 ) );
#225 = DIRECTION( '', ( -1.00000000000000, -0.000000000000000, 0.000000000000000 ) );
#226 = DIRECTION( '', ( -0.000000000000000, 0.000000000000000, -1.00000000000000 ) );
#227 = ORIENTED_EDGE( '', *, *, #233, .T. );
#228 = ORIENTED_EDGE( '', *, *, #244, .F. );
#229 = CARTESIAN_POINT( '', ( -26.8750000000000, 0.000000000000000, 0.000000000000000 ) );
#230 = DIRECTION( '', ( 1.00000000000000, -0.000000000000000, -0.000000000000000 ) );
#231 = DIRECTION( '', ( -0.000000000000000, 0.000000000000000, -1.00000000000000 ) );
#232 = EDGE_CURVE( '', #245, #245, #246, .T. );
#233 = EDGE_CURVE( '', #247, #247, #248, .T. );
#234 = EDGE_CURVE( '', #249, #249, #250, .T. );
#235 = EDGE_CURVE( '', #251, #251, #252, .T. );
#236 = EDGE_CURVE( '', #253, #253, #254, .T. );
#237 = EDGE_CURVE( '', #255, #255, #256, .T. );
#238 = EDGE_CURVE( '', #257, #257, #258, .T. );
#239 = EDGE_CURVE( '', #259, #259, #260, .T. );
#240 = EDGE_CURVE( '', #261, #261, #262, .T. );
#241 = EDGE_CURVE( '', #263, #263, #264, .T. );
#242 = EDGE_CURVE( '', #265, #265, #266, .T. );
#243 = EDGE_CURVE( '', #267, #267, #268, .T. );
#244 = EDGE_CURVE( '', #269, #269, #270, .T. );
#245 = VERTEX_POINT( '', #271 );
#246 = CIRCLE( '', #272, 23.9166666667000 );
#247 = VERTEX_POINT( '', #273 );
#248 = CIRCLE( '', #274, 23.9166666667000 );
#249 = VERTEX_POINT( '', #275 );
#250 = CIRCLE( '', #276, 18.5000000000000 );
#251 = VERTEX_POINT( '', #277 );
#252 = CIRCLE( '', #278, 18.5000000000000 );
#253 = VERTEX_POINT( '', #279 );
#254 = CIRCLE( '', #280, 20.0000000000000 );
#255 = VERTEX_POINT( '', #281 );
#256 = CIRCLE( '', #282, 17.8333333333000 );
#257 = VERTEX_POINT( '', #283 );
#258 = CIRCLE( '', #284, 17.8333333333000 );
#259 = VERTEX_POINT( '', #285 );
#260 = CIRCLE( '', #286, 20.0000000000000 );
#261 = VERTEX_POINT( '', #287 );
#262 = CIRCLE( '', #288, 20.0000000000000 );
#263 = VERTEX_POINT( '', #289 );
#264 = CIRCLE( '', #290, 26.5000000000000 );
#265 = VERTEX_POINT( '', #291 );
#266 = CIRCLE( '', #292, 26.5000000000000 );
#267 = VERTEX_POINT( '', #293 );
#268 = CIRCLE( '', #294, 25.0000000000000 );
#269 = VERTEX_POINT( '', #295 );
#270 = CIRCLE( '', #296, 25.0000000000000 );
#271 = CARTESIAN_POINT( '', ( -30.0000000000000, 0.000000000000000, -23.9166666666667 ) );
#272 = AXIS2_PLACEMENT_3D( '', #297, #298, #299 );
#273 = CARTESIAN_POINT( '', ( -27.9583333333333, 0.000000000000000, -23.9166666666667 ) );
#274 = AXIS2_PLACEMENT_3D( '', #300, #301, #302 );
#275 = CARTESIAN_POINT( '', ( -30.0000000000000, 0.000000000000000, -18.5000000000000 ) );
#276 = AXIS2_PLACEMENT_3D( '', #303, #304, #305 );
#277 = CARTESIAN_POINT( '', ( -8.12500000000000, 0.000000000000000, -18.5000000000000 ) );
#278 = AXIS2_PLACEMENT_3D( '', #306, #307, #308 );
#279 = CARTESIAN_POINT( '', ( -3.12500000000000, 0.000000000000000, -20.0000000000000 ) );
#280 = AXIS2_PLACEMENT_3D( '', #309, #310, #311 );
#281 = CARTESIAN_POINT( '', ( -3.12500000000000, 0.000000000000000, -17.8333333333333 ) );
#282 = AXIS2_PLACEMENT_3D( '', #312, #313, #314 );
#283 = CARTESIAN_POINT( '', ( 0.000000000000000, 0.000000000000000, -17.8333333333333 ) );
#284 = AXIS2_PLACEMENT_3D( '', #315, #316, #317 );
#285 = CARTESIAN_POINT( '', ( 0.000000000000000, 0.000000000000000, -20.0000000000000 ) );
#286 = AXIS2_PLACEMENT_3D( '', #318, #319, #320 );
#287 = CARTESIAN_POINT( '', ( 25.0000000000000, 0.000000000000000, -20.0000000000000 ) );
#288 = AXIS2_PLACEMENT_3D( '', #321, #322, #323 );
#289 = CARTESIAN_POINT( '', ( 25.0000000000000, 0.000000000000000, -26.5000000000000 ) );
#290 = AXIS2_PLACEMENT_3D( '', #324, #325, #326 );
#291 = CARTESIAN_POINT( '', ( 0.000000000000000, 0.000000000000000, -26.5000000000000 ) );
#292 = AXIS2_PLACEMENT_3D( '', #327, #328, #329 );
#293 = CARTESIAN_POINT( '', ( -5.00000000000000, 0.000000000000000, -25.0000000000000 ) );
#294 = AXIS2_PLACEMENT_3D( '', #330, #331, #332 );
#295 = CARTESIAN_POINT( '', ( -26.8750000000000, 0.000000000000000, -25.0000000000000 ) );
#296 = AXIS2_PLACEMENT_3D( '', #333, #334, #335 );
#297 = CARTESIAN_POINT( '', ( -30.0000000000000, 0.000000000000000, 0.000000000000000 ) );
#298 = DIRECTION( '', ( 1.00000000000000, 0.000000000000000, -0.000000000000000 ) );
#299 = DIRECTION( '', ( -0.000000000000000, 0.000000000000000, -1.00000000000000 ) );
#300 = CARTESIAN_POINT( '', ( -27.9583333333333, 0.000000000000000, 0.000000000000000 ) );
#301 = DIRECTION( '', ( 1.00000000000000, 0.000000000000000, -0.000000000000000 ) );
#302 = DIRECTION( '', ( -0.000000000000000, 0.000000000000000, -1.00000000000000 ) );
#303 = CARTESIAN_POINT( '', ( -30.0000000000000, 0.000000000000000, 0.000000000000000 ) );
#304 = DIRECTION( '', ( 1.00000000000000, 0.000000000000000, -0.000000000000000 ) );
#305 = DIRECTION( '', ( -0.000000000000000, 0.000000000000000, -1.00000000000000 ) );
#306 = CARTESIAN_POINT( '', ( -8.12500000000000, 0.000000000000000, 0.000000000000000 ) );
#307 = DIRECTION( '', ( 1.00000000000000, 0.000000000000000, -0.000000000000000 ) );
#308 = DIRECTION( '', ( -0.000000000000000, 0.000000000000000, -1.00000000000000 ) );
#309 = CARTESIAN_POINT( '', ( -3.12500000000000, 0.000000000000000, 0.000000000000000 ) );
#310 = DIRECTION( '', ( 1.00000000000000, 0.000000000000000, -0.000000000000000 ) );
#311 = DIRECTION( '', ( -0.000000000000000, 0.000000000000000, -1.00000000000000 ) );
#312 = CARTESIAN_POINT( '', ( -3.12500000000000, 0.000000000000000, 0.000000000000000 ) );
#313 = DIRECTION( '', ( 1.00000000000000, 0.000000000000000, -0.000000000000000 ) );
#314 = DIRECTION( '', ( -0.000000000000000, 0.000000000000000, -1.00000000000000 ) );
#315 = CARTESIAN_POINT( '', ( 0.000000000000000, 0.000000000000000, 0.000000000000000 ) );
#316 = DIRECTION( '', ( 1.00000000000000, 0.000000000000000, -0.000000000000000 ) );
#317 = DIRECTION( '', ( -0.000000000000000, 0.000000000000000, -1.00000000000000 ) );
#318 = CARTESIAN_POINT( '', ( 0.000000000000000, 0.000000000000000, 0.000000000000000 ) );
#319 = DIRECTION( '', ( 1.00000000000000, 0.000000000000000, -0.000000000000000 ) );
#320 = DIRECTION( '', ( -0.000000000000000, 0.000000000000000, -1.00000000000000 ) );
#321 = CARTESIAN_POINT( '', ( 25.0000000000000, 0.000000000000000, 0.000000000000000 ) );
#322 = DIRECTION( '', ( 1.00000000000000, 0.000000000000000, -0.000000000000000 ) );
#323 = DIRECTION( '', ( -0.000000000000000, 0.000000000000000, -1.00000000000000 ) );
#324 = CARTESIAN_POINT( '', ( 25.0000000000000, 0.000000000000000, 0.000000000000000 ) );
#325 = DIRECTION( '', ( 1.00000000000000, 0.000000000000000, -0.000000000000000 ) );
#326 = DIRECTION( '', ( -0.000000000000000, 0.000000000000000, -1.00000000000000 ) );
#327 = CARTESIAN_POINT( '', ( 0.000000000000000, 0.000000000000000, 0.000000000000000 ) );
#328 = DIRECTION( '', ( 1.00000000000000, 0.000000000000000, -0.000000000000000 ) );
#329 = DIRECTION( '', ( -0.000000000000000, 0.000000000000000, -1.00000000000000 ) );
#330 = CARTESIAN_POINT( '', ( -5.00000000000000, 0.000000000000000, 0.000000000000000 ) );
#331 = DIRECTION( '', ( 1.00000000000000, 0.000000000000000, -0.000000000000000 ) );
#332 = DIRECTION( '', ( -0.000000000000000, 0.000000000000000, -1.00000000000000 ) );
#333 = CARTESIAN_POINT( '', ( -26.8750000000000, 0.000000000000000, 0.000000000000000 ) );
#334 = DIRECTION( '', ( 1.00000000000000, 0.000000000000000, -0.000000000000000 ) );
#335 = DIRECTION( '', ( -0.000000000000000, 0.000000000000000, -1.00000000000000 ) );
ENDSEC;
END-ISO-10303-21;
