ISO-10303-21;
HEADER;
/* Generated by software containing ST-Developer
 * from STEP Tools, Inc. (www.steptools.com) 
 */

FILE_DESCRIPTION(
/* description */ (''),
/* implementation_level */ '2;1');

FILE_NAME(
/* name */ 'C:\\Users\\Eugenio\\Desktop\\so10\\ST204000.stp',
/* time_stamp */ '2019-10-16T15:17:49+02:00',
/* author */ ('Eugenio'),
/* organization */ (''),
/* preprocessor_version */ 'ST-DEVELOPER v16.5',
/* originating_system */ 'Autodesk Inventor 2017',
/* authorisation */ '');

FILE_SCHEMA (('AUTOMOTIVE_DESIGN { 1 0 10303 214 3 1 1 }'));
ENDSEC;

DATA;
#10=MECHANICAL_DESIGN_GEOMETRIC_PRESENTATION_REPRESENTATION('',(#20,#18,
#19),#185);
#11=SHAPE_REPRESENTATION_RELATIONSHIP('SRR','None',#194,#12);
#12=ADVANCED_BREP_SHAPE_REPRESENTATION('',(#13),#184);
#13=MANIFOLD_SOLID_BREP('Solido1',#105);
#14=CYLINDRICAL_SURFACE('',#110,186.5);
#15=CYLINDRICAL_SURFACE('',#114,242.5);
#16=CYLINDRICAL_SURFACE('',#118,218.5);
#17=CYLINDRICAL_SURFACE('',#122,200.);
#18=STYLED_ITEM('',(#204),#98);
#19=STYLED_ITEM('',(#204),#104);
#20=STYLED_ITEM('',(#203),#13);
#21=FACE_BOUND('',#38,.T.);
#22=FACE_BOUND('',#40,.T.);
#23=FACE_BOUND('',#42,.T.);
#24=FACE_BOUND('',#44,.T.);
#25=FACE_BOUND('',#46,.T.);
#26=FACE_BOUND('',#48,.T.);
#27=FACE_BOUND('',#50,.T.);
#28=FACE_BOUND('',#52,.T.);
#29=FACE_OUTER_BOUND('',#37,.T.);
#30=FACE_OUTER_BOUND('',#39,.T.);
#31=FACE_OUTER_BOUND('',#41,.T.);
#32=FACE_OUTER_BOUND('',#43,.T.);
#33=FACE_OUTER_BOUND('',#45,.T.);
#34=FACE_OUTER_BOUND('',#47,.T.);
#35=FACE_OUTER_BOUND('',#49,.T.);
#36=FACE_OUTER_BOUND('',#51,.T.);
#37=EDGE_LOOP('',(#77));
#38=EDGE_LOOP('',(#78));
#39=EDGE_LOOP('',(#79));
#40=EDGE_LOOP('',(#80));
#41=EDGE_LOOP('',(#81));
#42=EDGE_LOOP('',(#82));
#43=EDGE_LOOP('',(#83));
#44=EDGE_LOOP('',(#84));
#45=EDGE_LOOP('',(#85));
#46=EDGE_LOOP('',(#86));
#47=EDGE_LOOP('',(#87));
#48=EDGE_LOOP('',(#88));
#49=EDGE_LOOP('',(#89));
#50=EDGE_LOOP('',(#90));
#51=EDGE_LOOP('',(#91));
#52=EDGE_LOOP('',(#92));
#53=CIRCLE('',#108,200.);
#54=CIRCLE('',#109,186.5);
#55=CIRCLE('',#111,186.5);
#56=CIRCLE('',#113,242.5);
#57=CIRCLE('',#115,242.5);
#58=CIRCLE('',#117,218.5);
#59=CIRCLE('',#119,218.5);
#60=CIRCLE('',#121,200.);
#61=VERTEX_POINT('',#159);
#62=VERTEX_POINT('',#161);
#63=VERTEX_POINT('',#164);
#64=VERTEX_POINT('',#167);
#65=VERTEX_POINT('',#170);
#66=VERTEX_POINT('',#173);
#67=VERTEX_POINT('',#176);
#68=VERTEX_POINT('',#179);
#69=EDGE_CURVE('',#61,#61,#53,.T.);
#70=EDGE_CURVE('',#62,#62,#54,.T.);
#71=EDGE_CURVE('',#63,#63,#55,.T.);
#72=EDGE_CURVE('',#64,#64,#56,.T.);
#73=EDGE_CURVE('',#65,#65,#57,.T.);
#74=EDGE_CURVE('',#66,#66,#58,.T.);
#75=EDGE_CURVE('',#67,#67,#59,.T.);
#76=EDGE_CURVE('',#68,#68,#60,.T.);
#77=ORIENTED_EDGE('',*,*,#69,.T.);
#78=ORIENTED_EDGE('',*,*,#70,.F.);
#79=ORIENTED_EDGE('',*,*,#71,.F.);
#80=ORIENTED_EDGE('',*,*,#70,.T.);
#81=ORIENTED_EDGE('',*,*,#72,.F.);
#82=ORIENTED_EDGE('',*,*,#71,.T.);
#83=ORIENTED_EDGE('',*,*,#73,.F.);
#84=ORIENTED_EDGE('',*,*,#72,.T.);
#85=ORIENTED_EDGE('',*,*,#73,.T.);
#86=ORIENTED_EDGE('',*,*,#74,.F.);
#87=ORIENTED_EDGE('',*,*,#75,.F.);
#88=ORIENTED_EDGE('',*,*,#74,.T.);
#89=ORIENTED_EDGE('',*,*,#75,.T.);
#90=ORIENTED_EDGE('',*,*,#76,.F.);
#91=ORIENTED_EDGE('',*,*,#69,.F.);
#92=ORIENTED_EDGE('',*,*,#76,.T.);
#93=PLANE('',#107);
#94=PLANE('',#112);
#95=PLANE('',#116);
#96=PLANE('',#120);
#97=ADVANCED_FACE('',(#29,#21),#93,.T.);
#98=ADVANCED_FACE('',(#30,#22),#14,.F.);
#99=ADVANCED_FACE('',(#31,#23),#94,.T.);
#100=ADVANCED_FACE('',(#32,#24),#15,.T.);
#101=ADVANCED_FACE('',(#33,#25),#95,.T.);
#102=ADVANCED_FACE('',(#34,#26),#16,.T.);
#103=ADVANCED_FACE('',(#35,#27),#96,.T.);
#104=ADVANCED_FACE('',(#36,#28),#17,.F.);
#105=CLOSED_SHELL('',(#97,#98,#99,#100,#101,#102,#103,#104));
#106=AXIS2_PLACEMENT_3D('placement',#157,#123,#124);
#107=AXIS2_PLACEMENT_3D('',#158,#125,#126);
#108=AXIS2_PLACEMENT_3D('',#160,#127,#128);
#109=AXIS2_PLACEMENT_3D('',#162,#129,#130);
#110=AXIS2_PLACEMENT_3D('',#163,#131,#132);
#111=AXIS2_PLACEMENT_3D('',#165,#133,#134);
#112=AXIS2_PLACEMENT_3D('',#166,#135,#136);
#113=AXIS2_PLACEMENT_3D('',#168,#137,#138);
#114=AXIS2_PLACEMENT_3D('',#169,#139,#140);
#115=AXIS2_PLACEMENT_3D('',#171,#141,#142);
#116=AXIS2_PLACEMENT_3D('',#172,#143,#144);
#117=AXIS2_PLACEMENT_3D('',#174,#145,#146);
#118=AXIS2_PLACEMENT_3D('',#175,#147,#148);
#119=AXIS2_PLACEMENT_3D('',#177,#149,#150);
#120=AXIS2_PLACEMENT_3D('',#178,#151,#152);
#121=AXIS2_PLACEMENT_3D('',#180,#153,#154);
#122=AXIS2_PLACEMENT_3D('',#181,#155,#156);
#123=DIRECTION('axis',(0.,0.,1.));
#124=DIRECTION('refdir',(1.,0.,0.));
#125=DIRECTION('center_axis',(-1.,0.,0.));
#126=DIRECTION('ref_axis',(0.,0.,1.));
#127=DIRECTION('center_axis',(-1.,0.,0.));
#128=DIRECTION('ref_axis',(0.,0.,1.));
#129=DIRECTION('center_axis',(-1.,0.,0.));
#130=DIRECTION('ref_axis',(0.,0.,1.));
#131=DIRECTION('center_axis',(-1.,0.,0.));
#132=DIRECTION('ref_axis',(0.,-1.,0.));
#133=DIRECTION('center_axis',(-1.,0.,0.));
#134=DIRECTION('ref_axis',(0.,0.,1.));
#135=DIRECTION('center_axis',(1.,0.,0.));
#136=DIRECTION('ref_axis',(0.,0.,-1.));
#137=DIRECTION('center_axis',(-1.,0.,0.));
#138=DIRECTION('ref_axis',(0.,0.,1.));
#139=DIRECTION('center_axis',(-1.,0.,0.));
#140=DIRECTION('ref_axis',(0.,-1.,0.));
#141=DIRECTION('center_axis',(-1.,0.,0.));
#142=DIRECTION('ref_axis',(0.,0.,1.));
#143=DIRECTION('center_axis',(-1.,0.,0.));
#144=DIRECTION('ref_axis',(0.,0.,1.));
#145=DIRECTION('center_axis',(-1.,0.,0.));
#146=DIRECTION('ref_axis',(0.,0.,1.));
#147=DIRECTION('center_axis',(-1.,0.,0.));
#148=DIRECTION('ref_axis',(0.,-1.,0.));
#149=DIRECTION('center_axis',(-1.,0.,0.));
#150=DIRECTION('ref_axis',(0.,0.,1.));
#151=DIRECTION('center_axis',(-1.,0.,0.));
#152=DIRECTION('ref_axis',(0.,0.,1.));
#153=DIRECTION('center_axis',(-1.,0.,0.));
#154=DIRECTION('ref_axis',(0.,0.,1.));
#155=DIRECTION('center_axis',(-1.,0.,0.));
#156=DIRECTION('ref_axis',(0.,-1.,0.));
#157=CARTESIAN_POINT('',(0.,0.,0.));
#158=CARTESIAN_POINT('Origin',(235.307022940751,-186.5,0.));
#159=CARTESIAN_POINT('',(235.307022940751,-200.,0.));
#160=CARTESIAN_POINT('Origin',(235.307022940751,0.,0.));
#161=CARTESIAN_POINT('',(235.307022940751,-186.5,0.));
#162=CARTESIAN_POINT('Origin',(235.307022940751,0.,0.));
#163=CARTESIAN_POINT('Origin',(240.807022940751,0.,0.));
#164=CARTESIAN_POINT('',(246.307022940751,-186.5,0.));
#165=CARTESIAN_POINT('Origin',(246.307022940751,0.,0.));
#166=CARTESIAN_POINT('Origin',(246.307022940751,-242.5,0.));
#167=CARTESIAN_POINT('',(246.307022940751,-242.5,0.));
#168=CARTESIAN_POINT('Origin',(246.307022940751,0.,0.));
#169=CARTESIAN_POINT('Origin',(233.307022940751,0.,0.));
#170=CARTESIAN_POINT('',(220.307022940751,-242.5,0.));
#171=CARTESIAN_POINT('Origin',(220.307022940751,0.,0.));
#172=CARTESIAN_POINT('Origin',(220.307022940751,-218.5,0.));
#173=CARTESIAN_POINT('',(220.307022940751,-218.5,0.));
#174=CARTESIAN_POINT('Origin',(220.307022940751,0.,0.));
#175=CARTESIAN_POINT('Origin',(124.807022940751,0.,0.));
#176=CARTESIAN_POINT('',(29.3070229407507,-218.5,0.));
#177=CARTESIAN_POINT('Origin',(29.3070229407506,0.,0.));
#178=CARTESIAN_POINT('Origin',(29.3070229407506,-200.,0.));
#179=CARTESIAN_POINT('',(29.3070229407506,-200.,0.));
#180=CARTESIAN_POINT('Origin',(29.3070229407506,0.,0.));
#181=CARTESIAN_POINT('Origin',(132.307022940751,0.,0.));
#182=UNCERTAINTY_MEASURE_WITH_UNIT(LENGTH_MEASURE(0.01),#186,
'DISTANCE_ACCURACY_VALUE',
'Maximum model space distance between geometric entities at asserted c
onnectivities');
#183=UNCERTAINTY_MEASURE_WITH_UNIT(LENGTH_MEASURE(1.E-6),#186,
'DISTANCE_ACCURACY_VALUE',
'Maximum model space distance between geometric entities at asserted c
onnectivities');
#184=(
GEOMETRIC_REPRESENTATION_CONTEXT(3)
GLOBAL_UNCERTAINTY_ASSIGNED_CONTEXT((#182))
GLOBAL_UNIT_ASSIGNED_CONTEXT((#186,#189,#187))
REPRESENTATION_CONTEXT('','3D')
);
#185=(
GEOMETRIC_REPRESENTATION_CONTEXT(3)
GLOBAL_UNCERTAINTY_ASSIGNED_CONTEXT((#183))
GLOBAL_UNIT_ASSIGNED_CONTEXT((#186,#189,#187))
REPRESENTATION_CONTEXT('','3D')
);
#186=(
LENGTH_UNIT()
NAMED_UNIT(*)
SI_UNIT(.MILLI.,.METRE.)
);
#187=(
NAMED_UNIT(*)
SI_UNIT($,.STERADIAN.)
SOLID_ANGLE_UNIT()
);
#188=DIMENSIONAL_EXPONENTS(0.,0.,0.,0.,0.,0.,0.);
#189=(
CONVERSION_BASED_UNIT('degree',#191)
NAMED_UNIT(#188)
PLANE_ANGLE_UNIT()
);
#190=(
NAMED_UNIT(*)
PLANE_ANGLE_UNIT()
SI_UNIT($,.RADIAN.)
);
#191=PLANE_ANGLE_MEASURE_WITH_UNIT(PLANE_ANGLE_MEASURE(0.01745329252),#190);
#192=SHAPE_DEFINITION_REPRESENTATION(#193,#194);
#193=PRODUCT_DEFINITION_SHAPE('',$,#196);
#194=SHAPE_REPRESENTATION('',(#106),#184);
#195=PRODUCT_DEFINITION_CONTEXT('part definition',#200,'design');
#196=PRODUCT_DEFINITION('ST204000','ST204000',#197,#195);
#197=PRODUCT_DEFINITION_FORMATION('',$,#202);
#198=PRODUCT_RELATED_PRODUCT_CATEGORY('ST204000','ST204000',(#202));
#199=APPLICATION_PROTOCOL_DEFINITION('international standard',
'automotive_design',2009,#200);
#200=APPLICATION_CONTEXT(
'Core Data for Automotive Mechanical Design Process');
#201=PRODUCT_CONTEXT('part definition',#200,'mechanical');
#202=PRODUCT('ST204000','ST204000',$,(#201));
#203=PRESENTATION_STYLE_ASSIGNMENT((#205));
#204=PRESENTATION_STYLE_ASSIGNMENT((#206));
#205=SURFACE_STYLE_USAGE(.BOTH.,#207);
#206=SURFACE_STYLE_USAGE(.BOTH.,#208);
#207=SURFACE_SIDE_STYLE('',(#209));
#208=SURFACE_SIDE_STYLE('',(#210));
#209=SURFACE_STYLE_FILL_AREA(#211);
#210=SURFACE_STYLE_FILL_AREA(#212);
#211=FILL_AREA_STYLE('',(#213));
#212=FILL_AREA_STYLE('',(#214));
#213=FILL_AREA_STYLE_COLOUR('',#215);
#214=FILL_AREA_STYLE_COLOUR('',#216);
#215=COLOUR_RGB('',0.6,0.6,0.6);
#216=COLOUR_RGB('',0.949019607843137,0.949019607843137,1.);
ENDSEC;
END-ISO-10303-21;
