ISO-10303-21;
HEADER;
FILE_DESCRIPTION( ( 'STEP AP214' ), '1' );
FILE_NAME( 'p:/temp/worker_57/temp/exporttempdir_4388_206_h3pmp/format_0/AGRU_11050006307_Elbow 45\X2\00B0\X0\_PPR grey_63 - MOP 20 bar (architecture400).stp', '2022-03-09T12:13:33', ( 'License CC BY-ND 4.0' ), ( 'CADENAS' ), ' ', 'PARTsolutions', ' ' );
FILE_SCHEMA( ( 'AUTOMOTIVE_DESIGN { 1 0 10303 214 1 1 1 1 }' ) );
ENDSEC;
DATA;
#1 = MECHANICAL_DESIGN_GEOMETRIC_PRESENTATION_REPRESENTATION( ' ', ( #10, #11, #12, #13, #14, #15, #16, #17, #18, #19, #20, #21 ), #6 );
#2 = PRODUCT_DEFINITION_CONTEXT( '', #22, 'design' );
#3 = APPLICATION_PROTOCOL_DEFINITION( 'international standard', 'automotive_design', 2001, #22 );
#4 = PRODUCT_CATEGORY_RELATIONSHIP( 'NONE', 'NONE', #23, #24 );
#5 = SHAPE_DEFINITION_REPRESENTATION( #25, #26 );
#6 =  ( GEOMETRIC_REPRESENTATION_CONTEXT( 3 )GLOBAL_UNCERTAINTY_ASSIGNED_CONTEXT( ( #29 ) )GLOBAL_UNIT_ASSIGNED_CONTEXT( ( #31, #32, #33 ) )REPRESENTATION_CONTEXT( 'NONE', 'WORKSPACE' ) );
#10 = STYLED_ITEM( '', ( #35 ), #36 );
#11 = STYLED_ITEM( '', ( #37 ), #38 );
#12 = STYLED_ITEM( '', ( #39 ), #40 );
#13 = STYLED_ITEM( '', ( #41 ), #42 );
#14 = STYLED_ITEM( '', ( #43 ), #44 );
#15 = STYLED_ITEM( '', ( #45 ), #46 );
#16 = STYLED_ITEM( '', ( #47 ), #48 );
#17 = STYLED_ITEM( '', ( #49 ), #50 );
#18 = STYLED_ITEM( '', ( #51 ), #52 );
#19 = STYLED_ITEM( '', ( #53 ), #54 );
#20 = STYLED_ITEM( '', ( #55 ), #56 );
#21 = STYLED_ITEM( '', ( #57 ), #58 );
#22 = APPLICATION_CONTEXT( 'core data for automotive mechanical design processes' );
#23 = PRODUCT_CATEGORY( 'part', 'NONE' );
#24 = PRODUCT_RELATED_PRODUCT_CATEGORY( 'detail', ' ', ( #59 ) );
#25 = PRODUCT_DEFINITION_SHAPE( 'NONE', 'NONE', #60 );
#26 = ADVANCED_BREP_SHAPE_REPRESENTATION( '_AGRU_11050006307_Elbow 45\X2\00B0\X0\_PPR grey_63 - MOP 20 bar (architecture400)', ( #61, #62 ), #6 );
#29 = UNCERTAINTY_MEASURE_WITH_UNIT( LENGTH_MEASURE( 0.00100000000000000 ), #31, '', '' );
#31 =  ( CONVERSION_BASED_UNIT( 'MILLIMETRE', #65 )LENGTH_UNIT(  )NAMED_UNIT( #68 ) );
#32 =  ( NAMED_UNIT( #70 )PLANE_ANGLE_UNIT(  )SI_UNIT( $, .RADIAN. ) );
#33 =  ( NAMED_UNIT( #70 )SI_UNIT( $, .STERADIAN. )SOLID_ANGLE_UNIT(  ) );
#35 = PRESENTATION_STYLE_ASSIGNMENT( ( #76 ) );
#36 = ADVANCED_FACE( '', ( #77, #78 ), #79, .T. );
#37 = PRESENTATION_STYLE_ASSIGNMENT( ( #80 ) );
#38 = ADVANCED_FACE( '', ( #81, #82 ), #83, .F. );
#39 = PRESENTATION_STYLE_ASSIGNMENT( ( #84 ) );
#40 = ADVANCED_FACE( '', ( #85, #86 ), #87, .T. );
#41 = PRESENTATION_STYLE_ASSIGNMENT( ( #88 ) );
#42 = ADVANCED_FACE( '', ( #89 ), #90, .F. );
#43 = PRESENTATION_STYLE_ASSIGNMENT( ( #91 ) );
#44 = ADVANCED_FACE( '', ( #92 ), #93, .T. );
#45 = PRESENTATION_STYLE_ASSIGNMENT( ( #94 ) );
#46 = ADVANCED_FACE( '', ( #95, #96 ), #97, .F. );
#47 = PRESENTATION_STYLE_ASSIGNMENT( ( #98 ) );
#48 = ADVANCED_FACE( '', ( #99, #100 ), #101, .F. );
#49 = PRESENTATION_STYLE_ASSIGNMENT( ( #102 ) );
#50 = ADVANCED_FACE( '', ( #103, #104 ), #105, .F. );
#51 = PRESENTATION_STYLE_ASSIGNMENT( ( #106 ) );
#52 = ADVANCED_FACE( '', ( #107, #108 ), #109, .T. );
#53 = PRESENTATION_STYLE_ASSIGNMENT( ( #110 ) );
#54 = ADVANCED_FACE( '', ( #111, #112 ), #113, .F. );
#55 = PRESENTATION_STYLE_ASSIGNMENT( ( #114 ) );
#56 = ADVANCED_FACE( '', ( #115, #116 ), #117, .T. );
#57 = PRESENTATION_STYLE_ASSIGNMENT( ( #118 ) );
#58 = ADVANCED_FACE( '', ( #119, #120 ), #121, .F. );
#59 = PRODUCT( '_AGRU_11050006307_Elbow 45\X2\00B0\X0\_PPR grey_63 - MOP 20 bar (architecture400)', '_AGRU_11050006307_Elbow 45\X2\00B0\X0\_PPR grey_63 - MOP 20 bar (architecture400)', 'PART-_AGRU_11050006307_Elbow 45\X2\00B0\X0\_PPR grey_63 - MOP 20 bar (architecture400)-DESC', ( #122 ) );
#60 = PRODUCT_DEFINITION( 'NONE', 'NONE', #123, #2 );
#61 = MANIFOLD_SOLID_BREP( '_AGRU_11050006307_Elbow 45\X2\00B0\X0\_PPR grey_63 - MOP 20 bar (architecture400)', #124 );
#62 = AXIS2_PLACEMENT_3D( '', #125, #126, #127 );
#65 = LENGTH_MEASURE_WITH_UNIT( LENGTH_MEASURE( 1.00000000000000 ), #128 );
#68 = DIMENSIONAL_EXPONENTS( 1.00000000000000, 0.000000000000000, 0.000000000000000, 0.000000000000000, 0.000000000000000, 0.000000000000000, 0.000000000000000 );
#70 = DIMENSIONAL_EXPONENTS( 0.000000000000000, 0.000000000000000, 0.000000000000000, 0.000000000000000, 0.000000000000000, 0.000000000000000, 0.000000000000000 );
#76 = SURFACE_STYLE_USAGE( .BOTH., #129 );
#77 = FACE_OUTER_BOUND( '', #130, .T. );
#78 = FACE_OUTER_BOUND( '', #131, .T. );
#79 = CYLINDRICAL_SURFACE( '', #132, 40.5000000000000 );
#80 = SURFACE_STYLE_USAGE( .BOTH., #133 );
#81 = FACE_OUTER_BOUND( '', #134, .T. );
#82 = FACE_OUTER_BOUND( '', #135, .T. );
#83 = CYLINDRICAL_SURFACE( '', #136, 28.5000000000000 );
#84 = SURFACE_STYLE_USAGE( .BOTH., #137 );
#85 = FACE_OUTER_BOUND( '', #138, .T. );
#86 = FACE_OUTER_BOUND( '', #139, .T. );
#87 = CYLINDRICAL_SURFACE( '', #140, 40.5000000000000 );
#88 = SURFACE_STYLE_USAGE( .BOTH., #141 );
#89 = FACE_OUTER_BOUND( '', #142, .T. );
#90 = SPHERICAL_SURFACE( '', #143, 28.5000000000000 );
#91 = SURFACE_STYLE_USAGE( .BOTH., #144 );
#92 = FACE_OUTER_BOUND( '', #145, .T. );
#93 = SPHERICAL_SURFACE( '', #146, 40.5000000000000 );
#94 = SURFACE_STYLE_USAGE( .BOTH., #147 );
#95 = FACE_OUTER_BOUND( '', #148, .T. );
#96 = FACE_OUTER_BOUND( '', #149, .T. );
#97 = CYLINDRICAL_SURFACE( '', #150, 31.5000000000000 );
#98 = SURFACE_STYLE_USAGE( .BOTH., #151 );
#99 = FACE_OUTER_BOUND( '', #152, .T. );
#100 = FACE_OUTER_BOUND( '', #153, .T. );
#101 = CYLINDRICAL_SURFACE( '', #154, 28.5000000000000 );
#102 = SURFACE_STYLE_USAGE( .BOTH., #155 );
#103 = FACE_BOUND( '', #156, .T. );
#104 = FACE_OUTER_BOUND( '', #157, .T. );
#105 = PLANE( '', #158 );
#106 = SURFACE_STYLE_USAGE( .BOTH., #159 );
#107 = FACE_OUTER_BOUND( '', #160, .T. );
#108 = FACE_BOUND( '', #161, .T. );
#109 = PLANE( '', #162 );
#110 = SURFACE_STYLE_USAGE( .BOTH., #163 );
#111 = FACE_OUTER_BOUND( '', #164, .T. );
#112 = FACE_OUTER_BOUND( '', #165, .T. );
#113 = CYLINDRICAL_SURFACE( '', #166, 31.5000000000000 );
#114 = SURFACE_STYLE_USAGE( .BOTH., #167 );
#115 = FACE_BOUND( '', #168, .T. );
#116 = FACE_OUTER_BOUND( '', #169, .T. );
#117 = PLANE( '', #170 );
#118 = SURFACE_STYLE_USAGE( .BOTH., #171 );
#119 = FACE_BOUND( '', #172, .T. );
#120 = FACE_OUTER_BOUND( '', #173, .T. );
#121 = PLANE( '', #174 );
#122 = PRODUCT_CONTEXT( '', #22, 'mechanical' );
#123 = PRODUCT_DEFINITION_FORMATION_WITH_SPECIFIED_SOURCE( ' ', 'NONE', #59, .NOT_KNOWN. );
#124 = CLOSED_SHELL( '', ( #58, #36, #44, #40, #48, #56, #54, #50, #46, #52, #38, #42 ) );
#125 = CARTESIAN_POINT( '', ( 0.000000000000000, 0.000000000000000, 0.000000000000000 ) );
#126 = DIRECTION( '', ( 0.000000000000000, 0.000000000000000, 1.00000000000000 ) );
#127 = DIRECTION( '', ( 1.00000000000000, 0.000000000000000, 0.000000000000000 ) );
#128 =  ( LENGTH_UNIT(  )NAMED_UNIT( #68 )SI_UNIT( .MILLI., .METRE. ) );
#129 = SURFACE_SIDE_STYLE( '', ( #176 ) );
#130 = EDGE_LOOP( '', ( #177 ) );
#131 = EDGE_LOOP( '', ( #178, #179 ) );
#132 = AXIS2_PLACEMENT_3D( '', #180, #181, #182 );
#133 = SURFACE_SIDE_STYLE( '', ( #183 ) );
#134 = EDGE_LOOP( '', ( #184 ) );
#135 = EDGE_LOOP( '', ( #185, #186 ) );
#136 = AXIS2_PLACEMENT_3D( '', #187, #188, #189 );
#137 = SURFACE_SIDE_STYLE( '', ( #190 ) );
#138 = EDGE_LOOP( '', ( #191 ) );
#139 = EDGE_LOOP( '', ( #192, #193 ) );
#140 = AXIS2_PLACEMENT_3D( '', #194, #195, #196 );
#141 = SURFACE_SIDE_STYLE( '', ( #197 ) );
#142 = EDGE_LOOP( '', ( #198, #199 ) );
#143 = AXIS2_PLACEMENT_3D( '', #200, #201, #202 );
#144 = SURFACE_SIDE_STYLE( '', ( #203 ) );
#145 = EDGE_LOOP( '', ( #204, #205 ) );
#146 = AXIS2_PLACEMENT_3D( '', #206, #207, #208 );
#147 = SURFACE_SIDE_STYLE( '', ( #209 ) );
#148 = EDGE_LOOP( '', ( #210 ) );
#149 = EDGE_LOOP( '', ( #211 ) );
#150 = AXIS2_PLACEMENT_3D( '', #212, #213, #214 );
#151 = SURFACE_SIDE_STYLE( '', ( #215 ) );
#152 = EDGE_LOOP( '', ( #216, #217 ) );
#153 = EDGE_LOOP( '', ( #218 ) );
#154 = AXIS2_PLACEMENT_3D( '', #219, #220, #221 );
#155 = SURFACE_SIDE_STYLE( '', ( #222 ) );
#156 = EDGE_LOOP( '', ( #223 ) );
#157 = EDGE_LOOP( '', ( #224 ) );
#158 = AXIS2_PLACEMENT_3D( '', #225, #226, #227 );
#159 = SURFACE_SIDE_STYLE( '', ( #228 ) );
#160 = EDGE_LOOP( '', ( #229 ) );
#161 = EDGE_LOOP( '', ( #230 ) );
#162 = AXIS2_PLACEMENT_3D( '', #231, #232, #233 );
#163 = SURFACE_SIDE_STYLE( '', ( #234 ) );
#164 = EDGE_LOOP( '', ( #235 ) );
#165 = EDGE_LOOP( '', ( #236 ) );
#166 = AXIS2_PLACEMENT_3D( '', #237, #238, #239 );
#167 = SURFACE_SIDE_STYLE( '', ( #240 ) );
#168 = EDGE_LOOP( '', ( #241 ) );
#169 = EDGE_LOOP( '', ( #242 ) );
#170 = AXIS2_PLACEMENT_3D( '', #243, #244, #245 );
#171 = SURFACE_SIDE_STYLE( '', ( #246 ) );
#172 = EDGE_LOOP( '', ( #247 ) );
#173 = EDGE_LOOP( '', ( #248 ) );
#174 = AXIS2_PLACEMENT_3D( '', #249, #250, #251 );
#176 = SURFACE_STYLE_FILL_AREA( #252 );
#177 = ORIENTED_EDGE( '', *, *, #253, .T. );
#178 = ORIENTED_EDGE( '', *, *, #254, .F. );
#179 = ORIENTED_EDGE( '', *, *, #255, .F. );
#180 = CARTESIAN_POINT( '', ( 0.000000000000000, 0.000000000000000, 18.5000000000000 ) );
#181 = DIRECTION( '', ( 0.000000000000000, -0.000000000000000, 1.00000000000000 ) );
#182 = DIRECTION( '', ( -1.00000000000000, 0.000000000000000, 0.000000000000000 ) );
#183 = SURFACE_STYLE_FILL_AREA( #256 );
#184 = ORIENTED_EDGE( '', *, *, #257, .T. );
#185 = ORIENTED_EDGE( '', *, *, #258, .F. );
#186 = ORIENTED_EDGE( '', *, *, #259, .F. );
#187 = CARTESIAN_POINT( '', ( 34.2946788875476, 0.000000000000000, 52.7946788875476 ) );
#188 = DIRECTION( '', ( -0.707106781186548, 0.000000000000000, -0.707106781186547 ) );
#189 = DIRECTION( '', ( 0.707106781186547, 0.000000000000000, -0.707106781186548 ) );
#190 = SURFACE_STYLE_FILL_AREA( #260 );
#191 = ORIENTED_EDGE( '', *, *, #261, .F. );
#192 = ORIENTED_EDGE( '', *, *, #262, .T. );
#193 = ORIENTED_EDGE( '', *, *, #254, .T. );
#194 = CARTESIAN_POINT( '', ( 33.5875721063610, 0.000000000000000, 52.0875721063610 ) );
#195 = DIRECTION( '', ( -0.707106781186547, 0.000000000000000, -0.707106781186548 ) );
#196 = DIRECTION( '', ( 0.707106781186548, 0.000000000000000, -0.707106781186547 ) );
#197 = SURFACE_STYLE_FILL_AREA( #263 );
#198 = ORIENTED_EDGE( '', *, *, #264, .F. );
#199 = ORIENTED_EDGE( '', *, *, #259, .T. );
#200 = CARTESIAN_POINT( '', ( -1.38777878078145E-14, 0.000000000000000, 18.5000000000000 ) );
#201 = DIRECTION( '', ( 0.000000000000000, 0.000000000000000, 1.00000000000000 ) );
#202 = DIRECTION( '', ( 1.00000000000000, 0.000000000000000, 0.000000000000000 ) );
#203 = SURFACE_STYLE_FILL_AREA( #265 );
#204 = ORIENTED_EDGE( '', *, *, #255, .T. );
#205 = ORIENTED_EDGE( '', *, *, #262, .F. );
#206 = CARTESIAN_POINT( '', ( 6.93889390390723E-15, 0.000000000000000, 18.5000000000000 ) );
#207 = DIRECTION( '', ( 0.000000000000000, 0.000000000000000, 1.00000000000000 ) );
#208 = DIRECTION( '', ( -1.00000000000000, 0.000000000000000, 0.000000000000000 ) );
#209 = SURFACE_STYLE_FILL_AREA( #266 );
#210 = ORIENTED_EDGE( '', *, *, #267, .T. );
#211 = ORIENTED_EDGE( '', *, *, #268, .F. );
#212 = CARTESIAN_POINT( '', ( 34.2946788875476, 0.000000000000000, 52.7946788875476 ) );
#213 = DIRECTION( '', ( -0.707106781186548, 0.000000000000000, -0.707106781186547 ) );
#214 = DIRECTION( '', ( 0.707106781186547, 0.000000000000000, -0.707106781186548 ) );
#215 = SURFACE_STYLE_FILL_AREA( #269 );
#216 = ORIENTED_EDGE( '', *, *, #258, .T. );
#217 = ORIENTED_EDGE( '', *, *, #264, .T. );
#218 = ORIENTED_EDGE( '', *, *, #270, .F. );
#219 = CARTESIAN_POINT( '', ( 0.000000000000000, 0.000000000000000, 47.0000000000000 ) );
#220 = DIRECTION( '', ( -0.000000000000000, 0.000000000000000, -1.00000000000000 ) );
#221 = DIRECTION( '', ( 1.00000000000000, 0.000000000000000, 0.000000000000000 ) );
#222 = SURFACE_STYLE_FILL_AREA( #271 );
#223 = ORIENTED_EDGE( '', *, *, #267, .F. );
#224 = ORIENTED_EDGE( '', *, *, #261, .T. );
#225 = CARTESIAN_POINT( '', ( 4.94974746830581, 0.000000000000000, 80.7253967444162 ) );
#226 = DIRECTION( '', ( -0.707106781186547, 0.000000000000000, -0.707106781186548 ) );
#227 = DIRECTION( '', ( -0.707106781186548, 0.000000000000000, 0.707106781186547 ) );
#228 = SURFACE_STYLE_FILL_AREA( #272 );
#229 = ORIENTED_EDGE( '', *, *, #268, .T. );
#230 = ORIENTED_EDGE( '', *, *, #257, .F. );
#231 = CARTESIAN_POINT( '', ( -7.07106781186549, 0.000000000000000, 51.7340187157678 ) );
#232 = DIRECTION( '', ( 0.707106781186548, -0.000000000000000, 0.707106781186547 ) );
#233 = DIRECTION( '', ( 0.707106781186547, 0.000000000000000, -0.707106781186548 ) );
#234 = SURFACE_STYLE_FILL_AREA( #273 );
#235 = ORIENTED_EDGE( '', *, *, #274, .T. );
#236 = ORIENTED_EDGE( '', *, *, #275, .T. );
#237 = CARTESIAN_POINT( '', ( 0.000000000000000, 0.000000000000000, 47.0000000000000 ) );
#238 = DIRECTION( '', ( -0.000000000000000, 0.000000000000000, -1.00000000000000 ) );
#239 = DIRECTION( '', ( 1.00000000000000, 0.000000000000000, 0.000000000000000 ) );
#240 = SURFACE_STYLE_FILL_AREA( #276 );
#241 = ORIENTED_EDGE( '', *, *, #270, .T. );
#242 = ORIENTED_EDGE( '', *, *, #274, .F. );
#243 = CARTESIAN_POINT( '', ( -31.5000000000000, 0.000000000000000, 0.000000000000000 ) );
#244 = DIRECTION( '', ( 0.000000000000000, 0.000000000000000, -1.00000000000000 ) );
#245 = DIRECTION( '', ( -1.00000000000000, 0.000000000000000, 0.000000000000000 ) );
#246 = SURFACE_STYLE_FILL_AREA( #277 );
#247 = ORIENTED_EDGE( '', *, *, #275, .F. );
#248 = ORIENTED_EDGE( '', *, *, #253, .F. );
#249 = CARTESIAN_POINT( '', ( 0.000000000000000, 0.000000000000000, -29.0000000000000 ) );
#250 = DIRECTION( '', ( 0.000000000000000, 0.000000000000000, 1.00000000000000 ) );
#251 = DIRECTION( '', ( 1.00000000000000, 0.000000000000000, -0.000000000000000 ) );
#252 = FILL_AREA_STYLE( '', ( #278 ) );
#253 = EDGE_CURVE( '', #279, #279, #280, .T. );
#254 = EDGE_CURVE( '', #281, #282, #283, .F. );
#255 = EDGE_CURVE( '', #282, #281, #284, .T. );
#256 = FILL_AREA_STYLE( '', ( #285 ) );
#257 = EDGE_CURVE( '', #286, #286, #287, .T. );
#258 = EDGE_CURVE( '', #288, #289, #290, .T. );
#259 = EDGE_CURVE( '', #289, #288, #291, .T. );
#260 = FILL_AREA_STYLE( '', ( #292 ) );
#261 = EDGE_CURVE( '', #293, #293, #294, .T. );
#262 = EDGE_CURVE( '', #282, #281, #295, .T. );
#263 = FILL_AREA_STYLE( '', ( #296 ) );
#264 = EDGE_CURVE( '', #289, #288, #297, .T. );
#265 = FILL_AREA_STYLE( '', ( #298 ) );
#266 = FILL_AREA_STYLE( '', ( #299 ) );
#267 = EDGE_CURVE( '', #300, #300, #301, .F. );
#268 = EDGE_CURVE( '', #302, #302, #303, .T. );
#269 = FILL_AREA_STYLE( '', ( #304 ) );
#270 = EDGE_CURVE( '', #305, #305, #306, .T. );
#271 = FILL_AREA_STYLE( '', ( #307 ) );
#272 = FILL_AREA_STYLE( '', ( #308 ) );
#273 = FILL_AREA_STYLE( '', ( #309 ) );
#274 = EDGE_CURVE( '', #310, #310, #311, .T. );
#275 = EDGE_CURVE( '', #312, #312, #313, .F. );
#276 = FILL_AREA_STYLE( '', ( #314 ) );
#277 = FILL_AREA_STYLE( '', ( #315 ) );
#278 = FILL_AREA_STYLE_COLOUR( '', #316 );
#279 = VERTEX_POINT( '', #317 );
#280 = CIRCLE( '', #318, 40.5000000000000 );
#281 = VERTEX_POINT( '', #319 );
#282 = VERTEX_POINT( '', #320 );
#283 = ELLIPSE( '', #321, 43.8368841118000, 40.5000000000000 );
#284 = CIRCLE( '', #322, 40.5000000000000 );
#285 = FILL_AREA_STYLE_COLOUR( '', #323 );
#286 = VERTEX_POINT( '', #324 );
#287 = CIRCLE( '', #325, 28.5000000000000 );
#288 = VERTEX_POINT( '', #326 );
#289 = VERTEX_POINT( '', #327 );
#290 = ELLIPSE( '', #328, 30.8481777083000, 28.5000000000000 );
#291 = CIRCLE( '', #329, 28.5000000000000 );
#292 = FILL_AREA_STYLE_COLOUR( '', #330 );
#293 = VERTEX_POINT( '', #331 );
#294 = CIRCLE( '', #332, 40.5000000000000 );
#295 = CIRCLE( '', #333, 40.5000000000000 );
#296 = FILL_AREA_STYLE_COLOUR( '', #334 );
#297 = CIRCLE( '', #335, 28.5000000000000 );
#298 = FILL_AREA_STYLE_COLOUR( '', #336 );
#299 = FILL_AREA_STYLE_COLOUR( '', #337 );
#300 = VERTEX_POINT( '', #338 );
#301 = CIRCLE( '', #339, 31.5000000000000 );
#302 = VERTEX_POINT( '', #340 );
#303 = CIRCLE( '', #341, 31.5000000000000 );
#304 = FILL_AREA_STYLE_COLOUR( '', #342 );
#305 = VERTEX_POINT( '', #343 );
#306 = CIRCLE( '', #344, 28.5000000000000 );
#307 = FILL_AREA_STYLE_COLOUR( '', #345 );
#308 = FILL_AREA_STYLE_COLOUR( '', #346 );
#309 = FILL_AREA_STYLE_COLOUR( '', #347 );
#310 = VERTEX_POINT( '', #348 );
#311 = CIRCLE( '', #349, 31.5000000000000 );
#312 = VERTEX_POINT( '', #350 );
#313 = CIRCLE( '', #351, 31.5000000000000 );
#314 = FILL_AREA_STYLE_COLOUR( '', #352 );
#315 = FILL_AREA_STYLE_COLOUR( '', #353 );
#316 = COLOUR_RGB( '', 0.713725507300000, 0.709803938900000, 0.650980413000000 );
#317 = CARTESIAN_POINT( '', ( 40.5000000000000, 0.000000000000000, -29.0000000000000 ) );
#318 = AXIS2_PLACEMENT_3D( '', #354, #355, #356 );
#319 = CARTESIAN_POINT( '', ( 7.65743989462382E-15, -40.5000000000000, 18.5000000000000 ) );
#320 = CARTESIAN_POINT( '', ( 2.02214187226344E-14, 40.5000000000000, 18.5000000000000 ) );
#321 = AXIS2_PLACEMENT_3D( '', #357, #358, #359 );
#322 = AXIS2_PLACEMENT_3D( '', #360, #361, #362 );
#323 = COLOUR_RGB( '', 0.713725507300000, 0.709803938900000, 0.650980413000000 );
#324 = CARTESIAN_POINT( '', ( 33.2340187157677, 0.000000000000000, 11.4289321881345 ) );
#325 = AXIS2_PLACEMENT_3D( '', #363, #364, #365 );
#326 = CARTESIAN_POINT( '', ( -4.18799294267021E-15, -28.5000000000000, 18.5000000000000 ) );
#327 = CARTESIAN_POINT( '', ( -1.40574243054936E-14, 28.5000000000000, 18.5000000000000 ) );
#328 = AXIS2_PLACEMENT_3D( '', #366, #367, #368 );
#329 = AXIS2_PLACEMENT_3D( '', #369, #370, #371 );
#330 = COLOUR_RGB( '', 0.713725507300000, 0.709803938900000, 0.650980413000000 );
#331 = CARTESIAN_POINT( '', ( 62.2253967444162, 0.000000000000000, 23.4497474683058 ) );
#332 = AXIS2_PLACEMENT_3D( '', #372, #373, #374 );
#333 = AXIS2_PLACEMENT_3D( '', #375, #376, #377 );
#334 = COLOUR_RGB( '', 0.713725507300000, 0.709803938900000, 0.650980413000000 );
#335 = AXIS2_PLACEMENT_3D( '', #378, #379, #380 );
#336 = COLOUR_RGB( '', 0.713725507300000, 0.709803938900000, 0.650980413000000 );
#337 = COLOUR_RGB( '', 0.713725507300000, 0.709803938900000, 0.650980413000000 );
#338 = CARTESIAN_POINT( '', ( 11.3137084989848, 0.000000000000000, 74.3614357137373 ) );
#339 = AXIS2_PLACEMENT_3D( '', #381, #382, #383 );
#340 = CARTESIAN_POINT( '', ( 35.3553390593274, 0.000000000000000, 9.30761184457487 ) );
#341 = AXIS2_PLACEMENT_3D( '', #384, #385, #386 );
#342 = COLOUR_RGB( '', 0.713725507300000, 0.709803938900000, 0.650980413000000 );
#343 = CARTESIAN_POINT( '', ( 28.5000000000000, 0.000000000000000, 0.000000000000000 ) );
#344 = AXIS2_PLACEMENT_3D( '', #387, #388, #389 );
#345 = COLOUR_RGB( '', 0.713725507300000, 0.709803938900000, 0.650980413000000 );
#346 = COLOUR_RGB( '', 0.713725507300000, 0.709803938900000, 0.650980413000000 );
#347 = COLOUR_RGB( '', 0.713725507300000, 0.709803938900000, 0.650980413000000 );
#348 = CARTESIAN_POINT( '', ( 31.5000000000000, 0.000000000000000, 0.000000000000000 ) );
#349 = AXIS2_PLACEMENT_3D( '', #390, #391, #392 );
#350 = CARTESIAN_POINT( '', ( 31.5000000000000, 0.000000000000000, -29.0000000000000 ) );
#351 = AXIS2_PLACEMENT_3D( '', #393, #394, #395 );
#352 = COLOUR_RGB( '', 0.713725507300000, 0.709803938900000, 0.650980413000000 );
#353 = COLOUR_RGB( '', 0.713725507300000, 0.709803938900000, 0.650980413000000 );
#354 = CARTESIAN_POINT( '', ( 0.000000000000000, 0.000000000000000, -29.0000000000000 ) );
#355 = DIRECTION( '', ( 0.000000000000000, 0.000000000000000, 1.00000000000000 ) );
#356 = DIRECTION( '', ( 1.00000000000000, 0.000000000000000, 0.000000000000000 ) );
#357 = CARTESIAN_POINT( '', ( 0.000000000000000, 0.000000000000000, 18.5000000000000 ) );
#358 = DIRECTION( '', ( -0.382683432365090, 0.000000000000000, -0.923879532511287 ) );
#359 = DIRECTION( '', ( 0.923879532511287, 0.000000000000000, -0.382683432365090 ) );
#360 = CARTESIAN_POINT( '', ( 0.000000000000000, 0.000000000000000, 18.5000000000000 ) );
#361 = DIRECTION( '', ( 0.000000000000000, 0.000000000000000, 1.00000000000000 ) );
#362 = DIRECTION( '', ( 1.00000000000000, 0.000000000000000, 0.000000000000000 ) );
#363 = CARTESIAN_POINT( '', ( 13.0814754519511, 0.000000000000000, 31.5814754519511 ) );
#364 = DIRECTION( '', ( 0.707106781186548, -0.000000000000000, 0.707106781186548 ) );
#365 = DIRECTION( '', ( 0.707106781186547, 0.000000000000000, -0.707106781186547 ) );
#366 = CARTESIAN_POINT( '', ( 3.46944695195361E-15, 0.000000000000000, 18.5000000000000 ) );
#367 = DIRECTION( '', ( 0.382683432365090, 0.000000000000000, 0.923879532511287 ) );
#368 = DIRECTION( '', ( -0.923879532511287, 0.000000000000000, 0.382683432365090 ) );
#369 = CARTESIAN_POINT( '', ( -6.93889390390723E-15, 0.000000000000000, 18.5000000000000 ) );
#370 = DIRECTION( '', ( 0.707106781186548, -0.000000000000000, 0.707106781186548 ) );
#371 = DIRECTION( '', ( 0.707106781186547, 0.000000000000000, -0.707106781186548 ) );
#372 = CARTESIAN_POINT( '', ( 33.5875721063610, 0.000000000000000, 52.0875721063610 ) );
#373 = DIRECTION( '', ( 0.707106781186547, -0.000000000000000, 0.707106781186548 ) );
#374 = DIRECTION( '', ( 0.707106781186548, 0.000000000000000, -0.707106781186547 ) );
#375 = CARTESIAN_POINT( '', ( 1.04083408558608E-14, 0.000000000000000, 18.5000000000000 ) );
#376 = DIRECTION( '', ( 0.707106781186547, -0.000000000000000, 0.707106781186548 ) );
#377 = DIRECTION( '', ( 0.707106781186548, 0.000000000000000, -0.707106781186547 ) );
#378 = CARTESIAN_POINT( '', ( 0.000000000000000, 0.000000000000000, 18.5000000000000 ) );
#379 = DIRECTION( '', ( 0.000000000000000, -0.000000000000000, 1.00000000000000 ) );
#380 = DIRECTION( '', ( 1.00000000000000, 0.000000000000000, 0.000000000000000 ) );
#381 = CARTESIAN_POINT( '', ( 33.5875721063610, 0.000000000000000, 52.0875721063610 ) );
#382 = DIRECTION( '', ( -0.707106781186547, 0.000000000000000, -0.707106781186548 ) );
#383 = DIRECTION( '', ( -0.707106781186548, 0.000000000000000, 0.707106781186547 ) );
#384 = CARTESIAN_POINT( '', ( 13.0814754519511, 0.000000000000000, 31.5814754519511 ) );
#385 = DIRECTION( '', ( 0.707106781186548, -0.000000000000000, 0.707106781186547 ) );
#386 = DIRECTION( '', ( 0.707106781186547, 0.000000000000000, -0.707106781186548 ) );
#387 = CARTESIAN_POINT( '', ( 0.000000000000000, 0.000000000000000, 0.000000000000000 ) );
#388 = DIRECTION( '', ( 0.000000000000000, -0.000000000000000, 1.00000000000000 ) );
#389 = DIRECTION( '', ( 1.00000000000000, 0.000000000000000, 0.000000000000000 ) );
#390 = CARTESIAN_POINT( '', ( 0.000000000000000, 0.000000000000000, 0.000000000000000 ) );
#391 = DIRECTION( '', ( 0.000000000000000, -0.000000000000000, 1.00000000000000 ) );
#392 = DIRECTION( '', ( 1.00000000000000, 0.000000000000000, 0.000000000000000 ) );
#393 = CARTESIAN_POINT( '', ( 0.000000000000000, 0.000000000000000, -29.0000000000000 ) );
#394 = DIRECTION( '', ( 0.000000000000000, 0.000000000000000, 1.00000000000000 ) );
#395 = DIRECTION( '', ( 1.00000000000000, 0.000000000000000, -0.000000000000000 ) );
ENDSEC;
END-ISO-10303-21;
