ISO-10303-21;
HEADER;
FILE_DESCRIPTION( ( 'STEP AP203' ), '1' );
FILE_NAME( 'p:/temp/worker_33/temp/exporttempdir_144_300_TpcYF/format_0/30012025033(architecture400).stp', '2022-04-27T11:55:35', ( 'License CC BY-ND 4.0' ), ( 'CADENAS' ), ' ', 'PARTsolutions', ' ' );
FILE_SCHEMA( ( 'CONFIG_CONTROL_DESIGN' ) );
ENDSEC;
DATA;
#1 = DESIGN_CONTEXT( '', #27, 'design' );
#2 = APPLICATION_PROTOCOL_DEFINITION( 'international standard', 'config_control_design', 1994, #27 );
#3 = PRODUCT_CATEGORY_RELATIONSHIP( 'NONE', 'NONE', #28, #29 );
#4 = DATE_AND_TIME( #30, #31 );
#5 = DATE_TIME_ROLE( 'creation_date' );
#6 = DATE_TIME_ROLE( 'classification_date' );
#7 = PERSON_AND_ORGANIZATION_ROLE( 'creator' );
#8 = PERSON_AND_ORGANIZATION_ROLE( 'design_supplier' );
#9 = PERSON_AND_ORGANIZATION_ROLE( 'classification_officer' );
#10 = PERSON_AND_ORGANIZATION_ROLE( 'design_owner' );
#11 = APPROVAL_PERSON_ORGANIZATION( #32, #33, #34 );
#12 = APPROVAL_DATE_TIME( #4, #33 );
#13 = CC_DESIGN_APPROVAL( #33, ( #35, #36, #37 ) );
#14 = CC_DESIGN_DATE_AND_TIME_ASSIGNMENT( #4, #5, ( #37 ) );
#15 = CC_DESIGN_DATE_AND_TIME_ASSIGNMENT( #4, #6, ( #35 ) );
#16 = CC_DESIGN_PERSON_AND_ORGANIZATION_ASSIGNMENT( #32, #10, ( #38 ) );
#17 = CC_DESIGN_PERSON_AND_ORGANIZATION_ASSIGNMENT( #32, #7, ( #37 ) );
#18 = CC_DESIGN_PERSON_AND_ORGANIZATION_ASSIGNMENT( #32, #7, ( #36 ) );
#19 = CC_DESIGN_PERSON_AND_ORGANIZATION_ASSIGNMENT( #32, #8, ( #36 ) );
#20 = CC_DESIGN_SECURITY_CLASSIFICATION( #35, ( #36 ) );
#21 = CC_DESIGN_PERSON_AND_ORGANIZATION_ASSIGNMENT( #32, #9, ( #35 ) );
#22 = SHAPE_DEFINITION_REPRESENTATION( #39, #40 );
#23 =  ( GEOMETRIC_REPRESENTATION_CONTEXT( 3 )GLOBAL_UNCERTAINTY_ASSIGNED_CONTEXT( ( #43 ) )GLOBAL_UNIT_ASSIGNED_CONTEXT( ( #45, #46, #47 ) )REPRESENTATION_CONTEXT( 'NONE', 'WORKSPACE' ) );
#27 = APPLICATION_CONTEXT( 'configuration controlled 3D designs of mechanical parts and assemblies' );
#28 = PRODUCT_CATEGORY( 'part', 'NONE' );
#29 = PRODUCT_RELATED_PRODUCT_CATEGORY( 'detail', ' ', ( #38 ) );
#30 = CALENDAR_DATE( 2022, 27, 3 );
#31 = LOCAL_TIME( 13, 55, 35.0000000000000, #49 );
#32 = PERSON_AND_ORGANIZATION( #50, #51 );
#33 = APPROVAL( #52, 'SOLID MODEL' );
#34 = APPROVAL_ROLE( 'APPROVED' );
#35 = SECURITY_CLASSIFICATION( '', '', #53 );
#36 = PRODUCT_DEFINITION_FORMATION_WITH_SPECIFIED_SOURCE( ' ', 'NONE', #38, .NOT_KNOWN. );
#37 = PRODUCT_DEFINITION( 'NONE', 'NONE', #36, #1 );
#38 = PRODUCT( '_30012025033(architecture400)', '_30012025033(architecture400)', 'PART-_30012025033(architecture400)-DESC', ( #54 ) );
#39 = PRODUCT_DEFINITION_SHAPE( 'NONE', 'NONE', #37 );
#40 = ADVANCED_BREP_SHAPE_REPRESENTATION( '_30012025033(architecture400)', ( #55, #56 ), #23 );
#43 = UNCERTAINTY_MEASURE_WITH_UNIT( LENGTH_MEASURE( 0.00100000000000000 ), #45, '', '' );
#45 =  ( CONVERSION_BASED_UNIT( 'MILLIMETRE', #59 )LENGTH_UNIT(  )NAMED_UNIT( #62 ) );
#46 =  ( NAMED_UNIT( #64 )PLANE_ANGLE_UNIT(  )SI_UNIT( $, .RADIAN. ) );
#47 =  ( NAMED_UNIT( #64 )SI_UNIT( $, .STERADIAN. )SOLID_ANGLE_UNIT(  ) );
#49 = COORDINATED_UNIVERSAL_TIME_OFFSET( 1, 0, .AHEAD. );
#50 = PERSON( '', 'UNSPECIFIED', $, $, $, $ );
#51 = ORGANIZATION( 'UNSPECIFIED', 'UNSPECIFIED', 'UNSPECIFIED' );
#52 = APPROVAL_STATUS( 'approved' );
#53 = SECURITY_CLASSIFICATION_LEVEL( 'unclassified' );
#54 = MECHANICAL_CONTEXT( '', #27, 'mechanical' );
#55 = MANIFOLD_SOLID_BREP( '_30012025033(architecture400)', #70 );
#56 = AXIS2_PLACEMENT_3D( '', #71, #72, #73 );
#59 = LENGTH_MEASURE_WITH_UNIT( LENGTH_MEASURE( 1.00000000000000 ), #74 );
#62 = DIMENSIONAL_EXPONENTS( 1.00000000000000, 0.000000000000000, 0.000000000000000, 0.000000000000000, 0.000000000000000, 0.000000000000000, 0.000000000000000 );
#64 = DIMENSIONAL_EXPONENTS( 0.000000000000000, 0.000000000000000, 0.000000000000000, 0.000000000000000, 0.000000000000000, 0.000000000000000, 0.000000000000000 );
#70 = CLOSED_SHELL( '', ( #75, #76, #77, #78, #79, #80, #81 ) );
#71 = CARTESIAN_POINT( '', ( 0.000000000000000, 0.000000000000000, 0.000000000000000 ) );
#72 = DIRECTION( '', ( 0.000000000000000, 0.000000000000000, 1.00000000000000 ) );
#73 = DIRECTION( '', ( 1.00000000000000, 0.000000000000000, 0.000000000000000 ) );
#74 =  ( LENGTH_UNIT(  )NAMED_UNIT( #62 )SI_UNIT( .MILLI., .METRE. ) );
#75 = ADVANCED_FACE( '', ( #83, #84 ), #85, .T. );
#76 = ADVANCED_FACE( '', ( #86, #87 ), #88, .T. );
#77 = ADVANCED_FACE( '', ( #89, #90 ), #91, .F. );
#78 = ADVANCED_FACE( '', ( #92, #93 ), #94, .T. );
#79 = ADVANCED_FACE( '', ( #95, #96 ), #97, .T. );
#80 = ADVANCED_FACE( '', ( #98, #99 ), #100, .T. );
#81 = ADVANCED_FACE( '', ( #101, #102 ), #103, .T. );
#83 = FACE_OUTER_BOUND( '', #104, .T. );
#84 = FACE_OUTER_BOUND( '', #105, .T. );
#85 = CYLINDRICAL_SURFACE( '', #106, 160.000000000000 );
#86 = FACE_BOUND( '', #107, .T. );
#87 = FACE_OUTER_BOUND( '', #108, .T. );
#88 = PLANE( '', #109 );
#89 = FACE_OUTER_BOUND( '', #110, .T. );
#90 = FACE_OUTER_BOUND( '', #111, .T. );
#91 = CYLINDRICAL_SURFACE( '', #112, 117.300000000000 );
#92 = FACE_OUTER_BOUND( '', #113, .T. );
#93 = FACE_BOUND( '', #114, .T. );
#94 = PLANE( '', #115 );
#95 = FACE_OUTER_BOUND( '', #116, .T. );
#96 = FACE_OUTER_BOUND( '', #117, .T. );
#97 = CYLINDRICAL_SURFACE( '', #118, 125.000000000000 );
#98 = FACE_OUTER_BOUND( '', #119, .T. );
#99 = FACE_BOUND( '', #120, .T. );
#100 = CONICAL_SURFACE( '', #121, 125.000000000000, 0.412410441600000 );
#101 = FACE_OUTER_BOUND( '', #122, .T. );
#102 = FACE_BOUND( '', #123, .T. );
#103 = PLANE( '', #124 );
#104 = EDGE_LOOP( '', ( #125 ) );
#105 = EDGE_LOOP( '', ( #126 ) );
#106 = AXIS2_PLACEMENT_3D( '', #127, #128, #129 );
#107 = EDGE_LOOP( '', ( #130 ) );
#108 = EDGE_LOOP( '', ( #131 ) );
#109 = AXIS2_PLACEMENT_3D( '', #132, #133, #134 );
#110 = EDGE_LOOP( '', ( #135 ) );
#111 = EDGE_LOOP( '', ( #136 ) );
#112 = AXIS2_PLACEMENT_3D( '', #137, #138, #139 );
#113 = EDGE_LOOP( '', ( #140 ) );
#114 = EDGE_LOOP( '', ( #141 ) );
#115 = AXIS2_PLACEMENT_3D( '', #142, #143, #144 );
#116 = EDGE_LOOP( '', ( #145 ) );
#117 = EDGE_LOOP( '', ( #146 ) );
#118 = AXIS2_PLACEMENT_3D( '', #147, #148, #149 );
#119 = EDGE_LOOP( '', ( #150 ) );
#120 = EDGE_LOOP( '', ( #151 ) );
#121 = AXIS2_PLACEMENT_3D( '', #152, #153, #154 );
#122 = EDGE_LOOP( '', ( #155 ) );
#123 = EDGE_LOOP( '', ( #156 ) );
#124 = AXIS2_PLACEMENT_3D( '', #157, #158, #159 );
#125 = ORIENTED_EDGE( '', *, *, #160, .T. );
#126 = ORIENTED_EDGE( '', *, *, #161, .F. );
#127 = CARTESIAN_POINT( '', ( 0.000000000000000, 0.000000000000000, 0.000000000000000 ) );
#128 = DIRECTION( '', ( -1.00000000000000, -0.000000000000000, 0.000000000000000 ) );
#129 = DIRECTION( '', ( -0.000000000000000, 0.000000000000000, -1.00000000000000 ) );
#130 = ORIENTED_EDGE( '', *, *, #162, .T. );
#131 = ORIENTED_EDGE( '', *, *, #160, .F. );
#132 = CARTESIAN_POINT( '', ( -100.000000000000, 160.000000000000, 0.000000000000000 ) );
#133 = DIRECTION( '', ( -1.00000000000000, 0.000000000000000, 0.000000000000000 ) );
#134 = DIRECTION( '', ( 0.000000000000000, 0.000000000000000, 1.00000000000000 ) );
#135 = ORIENTED_EDGE( '', *, *, #163, .T. );
#136 = ORIENTED_EDGE( '', *, *, #162, .F. );
#137 = CARTESIAN_POINT( '', ( 0.000000000000000, 0.000000000000000, 0.000000000000000 ) );
#138 = DIRECTION( '', ( -1.00000000000000, -0.000000000000000, 0.000000000000000 ) );
#139 = DIRECTION( '', ( -0.000000000000000, 0.000000000000000, -1.00000000000000 ) );
#140 = ORIENTED_EDGE( '', *, *, #164, .T. );
#141 = ORIENTED_EDGE( '', *, *, #163, .F. );
#142 = CARTESIAN_POINT( '', ( 0.000000000000000, 117.300000000000, 0.000000000000000 ) );
#143 = DIRECTION( '', ( 1.00000000000000, 0.000000000000000, -0.000000000000000 ) );
#144 = DIRECTION( '', ( -0.000000000000000, 0.000000000000000, -1.00000000000000 ) );
#145 = ORIENTED_EDGE( '', *, *, #165, .T. );
#146 = ORIENTED_EDGE( '', *, *, #164, .F. );
#147 = CARTESIAN_POINT( '', ( 0.000000000000000, 0.000000000000000, 0.000000000000000 ) );
#148 = DIRECTION( '', ( -1.00000000000000, -0.000000000000000, 0.000000000000000 ) );
#149 = DIRECTION( '', ( -0.000000000000000, 0.000000000000000, -1.00000000000000 ) );
#150 = ORIENTED_EDGE( '', *, *, #166, .T. );
#151 = ORIENTED_EDGE( '', *, *, #165, .F. );
#152 = CARTESIAN_POINT( '', ( -40.0000000000000, 0.000000000000000, 0.000000000000000 ) );
#153 = DIRECTION( '', ( -1.00000000000000, 0.000000000000000, -0.000000000000000 ) );
#154 = DIRECTION( '', ( 0.000000000000000, 0.000000000000000, 1.00000000000000 ) );
#155 = ORIENTED_EDGE( '', *, *, #161, .T. );
#156 = ORIENTED_EDGE( '', *, *, #166, .F. );
#157 = CARTESIAN_POINT( '', ( -80.0000000000000, 142.500000000000, 0.000000000000000 ) );
#158 = DIRECTION( '', ( 1.00000000000000, 0.000000000000000, -0.000000000000000 ) );
#159 = DIRECTION( '', ( -0.000000000000000, 0.000000000000000, -1.00000000000000 ) );
#160 = EDGE_CURVE( '', #167, #167, #168, .T. );
#161 = EDGE_CURVE( '', #169, #169, #170, .T. );
#162 = EDGE_CURVE( '', #171, #171, #172, .T. );
#163 = EDGE_CURVE( '', #173, #173, #174, .T. );
#164 = EDGE_CURVE( '', #175, #175, #176, .T. );
#165 = EDGE_CURVE( '', #177, #177, #178, .T. );
#166 = EDGE_CURVE( '', #179, #179, #180, .T. );
#167 = VERTEX_POINT( '', #181 );
#168 = CIRCLE( '', #182, 160.000000000000 );
#169 = VERTEX_POINT( '', #183 );
#170 = CIRCLE( '', #184, 160.000000000000 );
#171 = VERTEX_POINT( '', #185 );
#172 = CIRCLE( '', #186, 117.300000000000 );
#173 = VERTEX_POINT( '', #187 );
#174 = CIRCLE( '', #188, 117.300000000000 );
#175 = VERTEX_POINT( '', #189 );
#176 = CIRCLE( '', #190, 125.000000000000 );
#177 = VERTEX_POINT( '', #191 );
#178 = CIRCLE( '', #192, 125.000000000000 );
#179 = VERTEX_POINT( '', #193 );
#180 = CIRCLE( '', #194, 142.500000000000 );
#181 = CARTESIAN_POINT( '', ( -100.000000000000, 0.000000000000000, -160.000000000000 ) );
#182 = AXIS2_PLACEMENT_3D( '', #195, #196, #197 );
#183 = CARTESIAN_POINT( '', ( -80.0000000000000, 0.000000000000000, -160.000000000000 ) );
#184 = AXIS2_PLACEMENT_3D( '', #198, #199, #200 );
#185 = CARTESIAN_POINT( '', ( -100.000000000000, 0.000000000000000, -117.300000000000 ) );
#186 = AXIS2_PLACEMENT_3D( '', #201, #202, #203 );
#187 = CARTESIAN_POINT( '', ( 0.000000000000000, 0.000000000000000, -117.300000000000 ) );
#188 = AXIS2_PLACEMENT_3D( '', #204, #205, #206 );
#189 = CARTESIAN_POINT( '', ( 0.000000000000000, 0.000000000000000, -125.000000000000 ) );
#190 = AXIS2_PLACEMENT_3D( '', #207, #208, #209 );
#191 = CARTESIAN_POINT( '', ( -40.0000000000000, 0.000000000000000, -125.000000000000 ) );
#192 = AXIS2_PLACEMENT_3D( '', #210, #211, #212 );
#193 = CARTESIAN_POINT( '', ( -80.0000000000000, 0.000000000000000, -142.500000000000 ) );
#194 = AXIS2_PLACEMENT_3D( '', #213, #214, #215 );
#195 = CARTESIAN_POINT( '', ( -100.000000000000, 0.000000000000000, 0.000000000000000 ) );
#196 = DIRECTION( '', ( 1.00000000000000, 0.000000000000000, -0.000000000000000 ) );
#197 = DIRECTION( '', ( -0.000000000000000, 0.000000000000000, -1.00000000000000 ) );
#198 = CARTESIAN_POINT( '', ( -80.0000000000000, 0.000000000000000, 0.000000000000000 ) );
#199 = DIRECTION( '', ( 1.00000000000000, 0.000000000000000, -0.000000000000000 ) );
#200 = DIRECTION( '', ( -0.000000000000000, 0.000000000000000, -1.00000000000000 ) );
#201 = CARTESIAN_POINT( '', ( -100.000000000000, 0.000000000000000, 0.000000000000000 ) );
#202 = DIRECTION( '', ( 1.00000000000000, 0.000000000000000, -0.000000000000000 ) );
#203 = DIRECTION( '', ( -0.000000000000000, 0.000000000000000, -1.00000000000000 ) );
#204 = CARTESIAN_POINT( '', ( 0.000000000000000, 0.000000000000000, 0.000000000000000 ) );
#205 = DIRECTION( '', ( 1.00000000000000, 0.000000000000000, -0.000000000000000 ) );
#206 = DIRECTION( '', ( -0.000000000000000, 0.000000000000000, -1.00000000000000 ) );
#207 = CARTESIAN_POINT( '', ( 0.000000000000000, 0.000000000000000, 0.000000000000000 ) );
#208 = DIRECTION( '', ( 1.00000000000000, 0.000000000000000, -0.000000000000000 ) );
#209 = DIRECTION( '', ( -0.000000000000000, 0.000000000000000, -1.00000000000000 ) );
#210 = CARTESIAN_POINT( '', ( -40.0000000000000, 0.000000000000000, 0.000000000000000 ) );
#211 = DIRECTION( '', ( 1.00000000000000, 0.000000000000000, -0.000000000000000 ) );
#212 = DIRECTION( '', ( -0.000000000000000, 0.000000000000000, -1.00000000000000 ) );
#213 = CARTESIAN_POINT( '', ( -80.0000000000000, 0.000000000000000, 0.000000000000000 ) );
#214 = DIRECTION( '', ( 1.00000000000000, 0.000000000000000, -0.000000000000000 ) );
#215 = DIRECTION( '', ( -0.000000000000000, 0.000000000000000, -1.00000000000000 ) );
ENDSEC;
END-ISO-10303-21;
