ISO-10303-21;
HEADER;
/****************************************************************
 * Generated by software with PDE/Lib inside                    *
 * PDElib Version v51a, created Mon 03/22/2010                  *
 * International Technegroup Inc. (www.iti-oh.com)              *
 ****************************************************************/
FILE_DESCRIPTION((''),'2;1');
FILE_NAME('R:\\Neue Zeichnungdateien ab Januar 2010\\Edelstahlprodukte\\Halteklammern\\Step\\114539.stp','2010-08-25T15:20:03',('DMK009'),(''),'Autodesk Inventor 2010','Autodesk Inventor 2010','');
FILE_SCHEMA(('AUTOMOTIVE_DESIGN { 1 0 10303 214 1 1 1 1 }'));
ENDSEC;
DATA;
#5=APPLICATION_CONTEXT('automotive design');
#6=APPLICATION_PROTOCOL_DEFINITION('International Standard','automotive_design',2001,#5);
#7=PRODUCT_CONTEXT('',#5,'mechanical');
#8=PRODUCT('Halteklammern Edelstahl','Halteklammern Edelstahl',$,(#7));
#9=PRODUCT_RELATED_PRODUCT_CATEGORY('part',$,(#8));
#10=PRODUCT_DEFINITION_FORMATION('',$,#8);
#11=PRODUCT_DEFINITION_CONTEXT('part definition',#5,'design');
#12=PRODUCT_DEFINITION('',$,#10,#11);
#18=(NAMED_UNIT(*)PLANE_ANGLE_UNIT()SI_UNIT($,.RADIAN.));
#19=DIMENSIONAL_EXPONENTS(0.0,0.0,0.0,0.0,0.0,0.0,0.0);
#20=PLANE_ANGLE_MEASURE_WITH_UNIT(PLANE_ANGLE_MEASURE(0.017453292500000),#18);
#24=(CONVERSION_BASED_UNIT('DEGREE',#20)NAMED_UNIT(#19)PLANE_ANGLE_UNIT());
#28=(NAMED_UNIT(*)SI_UNIT($,.STERADIAN.)SOLID_ANGLE_UNIT());
#32=(LENGTH_UNIT()NAMED_UNIT(*)SI_UNIT(.MILLI.,.METRE.));
#34=UNCERTAINTY_MEASURE_WITH_UNIT(LENGTH_MEASURE(0.010000000000000),#32,'DISTANCE_ACCURACY_VALUE','');
#36=(GEOMETRIC_REPRESENTATION_CONTEXT(3)GLOBAL_UNCERTAINTY_ASSIGNED_CONTEXT((#34))GLOBAL_UNIT_ASSIGNED_CONTEXT((#24,#28,#32))REPRESENTATION_CONTEXT('None','None'));
#37=AXIS2_PLACEMENT_3D('',#38,#39,#40);
#38=CARTESIAN_POINT('',(0.0,0.0,0.0));
#39=DIRECTION('',(0.0,0.0,1.0));
#40=DIRECTION('',(1.0,0.0,0.0));
#41=SHAPE_REPRESENTATION('',(#37),#36);
#42=PRODUCT_DEFINITION_SHAPE('','',#12);
#43=SHAPE_DEFINITION_REPRESENTATION(#42,#41);
#49=(NAMED_UNIT(*)PLANE_ANGLE_UNIT()SI_UNIT($,.RADIAN.));
#50=DIMENSIONAL_EXPONENTS(0.0,0.0,0.0,0.0,0.0,0.0,0.0);
#51=PLANE_ANGLE_MEASURE_WITH_UNIT(PLANE_ANGLE_MEASURE(0.017453292500000),#49);
#55=(CONVERSION_BASED_UNIT('DEGREE',#51)NAMED_UNIT(#50)PLANE_ANGLE_UNIT());
#59=(NAMED_UNIT(*)SI_UNIT($,.STERADIAN.)SOLID_ANGLE_UNIT());
#63=(LENGTH_UNIT()NAMED_UNIT(*)SI_UNIT(.MILLI.,.METRE.));
#65=UNCERTAINTY_MEASURE_WITH_UNIT(LENGTH_MEASURE(0.000001000000000),#63,'DISTANCE_ACCURACY_VALUE','');
#67=(GEOMETRIC_REPRESENTATION_CONTEXT(3)GLOBAL_UNCERTAINTY_ASSIGNED_CONTEXT((#65))GLOBAL_UNIT_ASSIGNED_CONTEXT((#55,#59,#63))REPRESENTATION_CONTEXT('','3D'));
#68=CARTESIAN_POINT('',(4.500000000000002,0.0,-6.535029E-017));
#69=CARTESIAN_POINT('',(4.500000000000002,-3.0,-6.036052E-017));
#70=CARTESIAN_POINT('',(4.500000000000001,-7.484650E-018,-4.500000000000000));
#71=CARTESIAN_POINT('',(4.500000000000001,-3.0,-4.500000000000000));
#72=CARTESIAN_POINT('',(5.591502E-016,-7.484650E-018,-4.500000000000000));
#73=CARTESIAN_POINT('',(5.746384E-016,-3.0,-4.500000000000000));
#74=CARTESIAN_POINT('',(-4.499999999999999,-7.484650E-018,-4.499999999999998));
#75=CARTESIAN_POINT('',(-4.499999999999999,-3.0,-4.499999999999998));
#76=CARTESIAN_POINT('',(-4.500000000000000,0.0,1.036795E-015));
#77=CARTESIAN_POINT('',(-4.500000000000000,-3.0,1.041785E-015));
#78=CARTESIAN_POINT('',(-4.499999999999998,7.484650E-018,4.500000000000002));
#79=CARTESIAN_POINT('',(-4.499999999999998,-3.0,4.500000000000002));
#80=CARTESIAN_POINT('',(1.661296E-015,7.484650E-018,4.500000000000002));
#81=CARTESIAN_POINT('',(1.676784E-015,-3.0,4.500000000000002));
#82=CARTESIAN_POINT('',(4.500000000000002,7.484650E-018,4.500000000000000));
#83=CARTESIAN_POINT('',(4.500000000000002,-3.0,4.500000000000000));
#84=CARTESIAN_POINT('',(4.500000000000002,0.0,-6.535029E-017));
#85=CARTESIAN_POINT('',(4.500000000000002,-3.0,-6.036052E-017));
#93=(BOUNDED_SURFACE()B_SPLINE_SURFACE(1,2,((#68,#70,#72,#74,#76,#78,#80,#82,#84),(#69,#71,#73,#75,#77,#79,#81,#83,#85)),.UNSPECIFIED.,.F.,.T.,.U.)B_SPLINE_SURFACE_WITH_KNOTS((2,2),(3,2,2,2,3),(-9.725237627615085,-9.058570960948419),(0.0,7.068583470577035,14.137166941154069,21.205750411731103,28.274333882308138),.UNSPECIFIED.)GEOMETRIC_REPRESENTATION_ITEM()RATIONAL_B_SPLINE_SURFACE(((1.0,0.707106781186548,1.0,0.707106781186548,1.0,0.707106781186548,1.0,0.707106781186548,1.0),(1.0,0.707106781186548,1.0,0.707106781186548,1.0,0.707106781186548,1.0,0.707106781186548,1.0)))REPRESENTATION_ITEM('')SURFACE());
#94=CARTESIAN_POINT('',(4.500000000000001,-2.999999999999998,-6.036052E-017));
#95=VERTEX_POINT('',#94);
#96=CARTESIAN_POINT('',(1.125711E-015,-2.999999999999998,4.907123E-016));
#97=DIRECTION('',(0.0,1.0,0.0));
#98=DIRECTION('',(-1.0,0.0,0.0));
#99=AXIS2_PLACEMENT_3D('',#96,#97,#98);
#100=CIRCLE('',#99,4.500000000000000);
#101=EDGE_CURVE('',#95,#95,#100,.T.);
#102=ORIENTED_EDGE('',*,*,#101,.F.);
#103=EDGE_LOOP('',(#102));
#104=FACE_OUTER_BOUND('',#103,.T.);
#105=CARTESIAN_POINT('',(-4.499999999999999,2.197214E-015,4.857226E-016));
#106=VERTEX_POINT('',#105);
#107=CARTESIAN_POINT('',(1.110223E-015,0.0,4.857226E-016));
#108=DIRECTION('',(0.0,-1.0,0.0));
#109=DIRECTION('',(-1.0,0.0,0.0));
#110=AXIS2_PLACEMENT_3D('',#107,#108,#109);
#111=CIRCLE('',#110,4.500000000000000);
#112=EDGE_CURVE('',#106,#106,#111,.T.);
#113=ORIENTED_EDGE('',*,*,#112,.F.);
#114=EDGE_LOOP('',(#113));
#115=FACE_BOUND('',#114,.T.);
#116=ADVANCED_FACE('',(#104,#115),#93,.F.);
#117=CARTESIAN_POINT('',(14.250000000000004,-3.999999999999999,-12.500000000000000));
#118=DIRECTION('',(0.0,0.0,-1.0));
#119=DIRECTION('',(1.0,0.0,0.0));
#120=AXIS2_PLACEMENT_3D('',#117,#118,#119);
#121=PLANE('',#120);
#122=CARTESIAN_POINT('',(14.250000000000005,-3.999999999999999,-12.500000000000000));
#123=VERTEX_POINT('',#122);
#124=CARTESIAN_POINT('',(17.250000000000004,-3.999999999999995,-12.500000000000000));
#125=VERTEX_POINT('',#124);
#126=CARTESIAN_POINT('',(14.250000000000005,-4.0,-12.500000000000000));
#127=DIRECTION('',(1.0,0.0,0.0));
#128=VECTOR('',#127,2.999999999999998);
#129=LINE('',#126,#128);
#130=EDGE_CURVE('',#123,#125,#129,.T.);
#131=ORIENTED_EDGE('',*,*,#130,.T.);
#132=CARTESIAN_POINT('',(17.250000000000018,-9.999999999999996,-12.500000000000000));
#133=VERTEX_POINT('',#132);
#134=CARTESIAN_POINT('',(17.250000000000004,-3.999999999999995,-12.500000000000000));
#135=DIRECTION('',(0.0,-1.0,0.0));
#136=VECTOR('',#135,6.0);
#137=LINE('',#134,#136);
#138=EDGE_CURVE('',#125,#133,#137,.T.);
#139=ORIENTED_EDGE('',*,*,#138,.T.);
#140=CARTESIAN_POINT('',(14.250000000000016,-10.0,-12.500000000000000));
#141=VERTEX_POINT('',#140);
#142=CARTESIAN_POINT('',(14.250000000000016,-10.0,-12.500000000000000));
#143=DIRECTION('',(1.0,0.0,0.0));
#144=VECTOR('',#143,3.000000000000002);
#145=LINE('',#142,#144);
#146=EDGE_CURVE('',#141,#133,#145,.T.);
#147=ORIENTED_EDGE('',*,*,#146,.F.);
#148=CARTESIAN_POINT('',(14.250000000000005,-4.0,-12.500000000000000));
#149=DIRECTION('',(0.0,-1.0,0.0));
#150=VECTOR('',#149,6.0);
#151=LINE('',#148,#150);
#152=EDGE_CURVE('',#123,#141,#151,.T.);
#153=ORIENTED_EDGE('',*,*,#152,.F.);
#154=EDGE_LOOP('',(#131,#139,#147,#153));
#155=FACE_OUTER_BOUND('',#154,.T.);
#156=ADVANCED_FACE('',(#155),#121,.T.);
#157=CARTESIAN_POINT('',(13.250000000000004,-3.999999999999997,12.500000000000000));
#158=DIRECTION('',(0.0,0.0,-1.0));
#159=DIRECTION('',(1.0,0.0,0.0));
#160=AXIS2_PLACEMENT_3D('',#157,#158,#159);
#161=CYLINDRICAL_SURFACE('',#160,1.000000000000001);
#162=CARTESIAN_POINT('',(14.250000000000005,-3.999999999999999,12.500000000000000));
#163=VERTEX_POINT('',#162);
#164=CARTESIAN_POINT('',(14.250000000000005,-3.999999999999995,12.500000000000000));
#165=DIRECTION('',(0.0,0.0,-1.0));
#166=VECTOR('',#165,25.0);
#167=LINE('',#164,#166);
#168=EDGE_CURVE('',#163,#123,#167,.T.);
#169=ORIENTED_EDGE('',*,*,#168,.F.);
#170=CARTESIAN_POINT('',(13.250000000000004,-2.999999999999996,12.500000000000000));
#171=VERTEX_POINT('',#170);
#172=CARTESIAN_POINT('',(13.250000000000004,-3.999999999999997,12.500000000000000));
#173=DIRECTION('',(0.0,0.0,-1.0));
#174=DIRECTION('',(0.0,1.0,0.0));
#175=AXIS2_PLACEMENT_3D('',#172,#173,#174);
#176=CIRCLE('',#175,1.000000000000001);
#177=EDGE_CURVE('',#171,#163,#176,.T.);
#178=ORIENTED_EDGE('',*,*,#177,.F.);
#179=CARTESIAN_POINT('',(13.250000000000004,-2.999999999999996,-12.500000000000000));
#180=VERTEX_POINT('',#179);
#181=CARTESIAN_POINT('',(13.250000000000004,-2.999999999999996,12.500000000000000));
#182=DIRECTION('',(0.0,0.0,-1.0));
#183=VECTOR('',#182,25.0);
#184=LINE('',#181,#183);
#185=EDGE_CURVE('',#171,#180,#184,.T.);
#186=ORIENTED_EDGE('',*,*,#185,.T.);
#187=CARTESIAN_POINT('',(13.250000000000004,-3.999999999999997,-12.500000000000000));
#188=DIRECTION('',(0.0,0.0,-1.0));
#189=DIRECTION('',(0.0,1.0,0.0));
#190=AXIS2_PLACEMENT_3D('',#187,#188,#189);
#191=CIRCLE('',#190,1.000000000000001);
#192=EDGE_CURVE('',#180,#123,#191,.T.);
#193=ORIENTED_EDGE('',*,*,#192,.T.);
#194=EDGE_LOOP('',(#169,#178,#186,#193));
#195=FACE_OUTER_BOUND('',#194,.T.);
#196=ADVANCED_FACE('',(#195),#161,.F.);
#197=CARTESIAN_POINT('',(17.249999999999975,12.894247478164170,4.857226E-016));
#198=DIRECTION('',(-1.0,0.0,0.0));
#199=DIRECTION('',(0.0,0.0,-1.0));
#200=AXIS2_PLACEMENT_3D('',#197,#198,#199);
#201=PLANE('',#200);
#202=CARTESIAN_POINT('',(17.250000000000007,-3.999999999999995,12.500000000000000));
#203=VERTEX_POINT('',#202);
#204=CARTESIAN_POINT('',(17.250000000000007,-3.999999999999990,-12.500000000000000));
#205=DIRECTION('',(0.0,0.0,1.0));
#206=VECTOR('',#205,25.0);
#207=LINE('',#204,#206);
#208=EDGE_CURVE('',#125,#203,#207,.T.);
#209=ORIENTED_EDGE('',*,*,#208,.T.);
#210=CARTESIAN_POINT('',(17.250000000000018,-9.999999999999996,12.500000000000000));
#211=VERTEX_POINT('',#210);
#212=CARTESIAN_POINT('',(17.250000000000014,-9.999999999999979,12.500000000000000));
#213=DIRECTION('',(0.0,1.0,0.0));
#214=VECTOR('',#213,5.999999999999986);
#215=LINE('',#212,#214);
#216=EDGE_CURVE('',#211,#203,#215,.T.);
#217=ORIENTED_EDGE('',*,*,#216,.F.);
#218=CARTESIAN_POINT('',(17.250000000000018,-9.999999999999996,-12.500000000000000));
#219=DIRECTION('',(0.0,0.0,1.0));
#220=VECTOR('',#219,25.0);
#221=LINE('',#218,#220);
#222=EDGE_CURVE('',#133,#211,#221,.T.);
#223=ORIENTED_EDGE('',*,*,#222,.F.);
#224=ORIENTED_EDGE('',*,*,#138,.F.);
#225=EDGE_LOOP('',(#209,#217,#223,#224));
#226=FACE_OUTER_BOUND('',#225,.T.);
#227=ADVANCED_FACE('',(#226),#201,.F.);
#228=CARTESIAN_POINT('',(17.250000000000007,-3.999999999999989,12.500000000000000));
#229=DIRECTION('',(0.0,0.0,1.0));
#230=DIRECTION('',(1.0,0.0,0.0));
#231=AXIS2_PLACEMENT_3D('',#228,#229,#230);
#232=PLANE('',#231);
#233=CARTESIAN_POINT('',(17.250000000000007,-3.999999999999995,12.500000000000000));
#234=DIRECTION('',(-1.0,0.0,0.0));
#235=VECTOR('',#234,3.000000000000002);
#236=LINE('',#233,#235);
#237=EDGE_CURVE('',#203,#163,#236,.T.);
#238=ORIENTED_EDGE('',*,*,#237,.F.);
#239=CARTESIAN_POINT('',(13.250000000000004,4.440892E-015,12.500000000000000));
#240=VERTEX_POINT('',#239);
#241=CARTESIAN_POINT('',(13.250000000000004,-3.999999999999997,12.500000000000000));
#242=DIRECTION('',(0.0,0.0,1.0));
#243=DIRECTION('',(1.0,0.0,0.0));
#244=AXIS2_PLACEMENT_3D('',#241,#242,#243);
#245=CIRCLE('',#244,4.000000000000002);
#246=EDGE_CURVE('',#203,#240,#245,.T.);
#247=ORIENTED_EDGE('',*,*,#246,.T.);
#248=CARTESIAN_POINT('',(13.250000000000004,4.440892E-015,12.500000000000000));
#249=DIRECTION('',(0.0,-1.0,0.0));
#250=VECTOR('',#249,3.000000000000000);
#251=LINE('',#248,#250);
#252=EDGE_CURVE('',#240,#171,#251,.T.);
#253=ORIENTED_EDGE('',*,*,#252,.T.);
#254=ORIENTED_EDGE('',*,*,#177,.T.);
#255=EDGE_LOOP('',(#238,#247,#253,#254));
#256=FACE_OUTER_BOUND('',#255,.T.);
#257=ADVANCED_FACE('',(#256),#232,.T.);
#258=CARTESIAN_POINT('',(14.249999999999943,29.788494956328325,12.500000000000000));
#259=DIRECTION('',(0.0,0.0,1.0));
#260=DIRECTION('',(-1.0,0.0,0.0));
#261=AXIS2_PLACEMENT_3D('',#258,#259,#260);
#262=PLANE('',#261);
#263=ORIENTED_EDGE('',*,*,#237,.T.);
#264=CARTESIAN_POINT('',(14.250000000000016,-10.0,12.500000000000000));
#265=VERTEX_POINT('',#264);
#266=CARTESIAN_POINT('',(14.250000000000005,-4.0,12.500000000000000));
#267=DIRECTION('',(0.0,-1.0,0.0));
#268=VECTOR('',#267,5.999999999999993);
#269=LINE('',#266,#268);
#270=EDGE_CURVE('',#163,#265,#269,.T.);
#271=ORIENTED_EDGE('',*,*,#270,.T.);
#272=CARTESIAN_POINT('',(14.250000000000016,-10.0,12.500000000000000));
#273=DIRECTION('',(1.0,0.0,0.0));
#274=VECTOR('',#273,3.000000000000002);
#275=LINE('',#272,#274);
#276=EDGE_CURVE('',#265,#211,#275,.T.);
#277=ORIENTED_EDGE('',*,*,#276,.T.);
#278=ORIENTED_EDGE('',*,*,#216,.T.);
#279=EDGE_LOOP('',(#263,#271,#277,#278));
#280=FACE_OUTER_BOUND('',#279,.T.);
#281=ADVANCED_FACE('',(#280),#262,.T.);
#282=CARTESIAN_POINT('',(2.220446E-015,2.220446E-015,4.857226E-016));
#283=DIRECTION('',(0.0,-1.0,0.0));
#284=DIRECTION('',(0.0,0.0,-1.0));
#285=AXIS2_PLACEMENT_3D('',#282,#283,#284);
#286=PLANE('',#285);
#287=CARTESIAN_POINT('',(13.250000000000004,2.220446E-015,-12.500000000000000));
#288=VERTEX_POINT('',#287);
#289=CARTESIAN_POINT('',(13.250000000000004,4.420101E-015,-12.500000000000000));
#290=DIRECTION('',(0.0,0.0,1.0));
#291=VECTOR('',#290,25.0);
#292=LINE('',#289,#291);
#293=EDGE_CURVE('',#288,#240,#292,.T.);
#294=ORIENTED_EDGE('',*,*,#293,.F.);
#295=CARTESIAN_POINT('',(-13.250000000000000,0.0,-12.500000000000000));
#296=VERTEX_POINT('',#295);
#297=CARTESIAN_POINT('',(-13.250000000000000,3.747042E-016,-12.500000000000000));
#298=DIRECTION('',(1.0,0.0,0.0));
#299=VECTOR('',#298,26.500000000000004);
#300=LINE('',#297,#299);
#301=EDGE_CURVE('',#296,#288,#300,.T.);
#302=ORIENTED_EDGE('',*,*,#301,.F.);
#303=CARTESIAN_POINT('',(-13.249999999999996,2.220446E-015,12.500000000000000));
#304=VERTEX_POINT('',#303);
#305=CARTESIAN_POINT('',(-13.249999999999996,2.199655E-015,-12.500000000000000));
#306=DIRECTION('',(0.0,0.0,1.0));
#307=VECTOR('',#306,25.0);
#308=LINE('',#305,#307);
#309=EDGE_CURVE('',#296,#304,#308,.T.);
#310=ORIENTED_EDGE('',*,*,#309,.T.);
#311=CARTESIAN_POINT('',(13.250000000000000,4.433570E-015,12.500000000000000));
#312=DIRECTION('',(-1.0,0.0,0.0));
#313=VECTOR('',#312,26.499999999999996);
#314=LINE('',#311,#313);
#315=EDGE_CURVE('',#240,#304,#314,.T.);
#316=ORIENTED_EDGE('',*,*,#315,.F.);
#317=EDGE_LOOP('',(#294,#302,#310,#316));
#318=FACE_OUTER_BOUND('',#317,.T.);
#319=ORIENTED_EDGE('',*,*,#112,.T.);
#320=EDGE_LOOP('',(#319));
#321=FACE_BOUND('',#320,.T.);
#322=ADVANCED_FACE('',(#318,#321),#286,.F.);
#323=CARTESIAN_POINT('',(14.249999999999973,12.894247478164163,-4.857226E-016));
#324=DIRECTION('',(-1.0,0.0,0.0));
#325=DIRECTION('',(0.0,0.0,-1.0));
#326=AXIS2_PLACEMENT_3D('',#323,#324,#325);
#327=PLANE('',#326);
#328=ORIENTED_EDGE('',*,*,#168,.T.);
#329=ORIENTED_EDGE('',*,*,#152,.T.);
#330=CARTESIAN_POINT('',(14.250000000000016,-10.0,-12.500000000000000));
#331=DIRECTION('',(0.0,0.0,1.0));
#332=VECTOR('',#331,25.0);
#333=LINE('',#330,#332);
#334=EDGE_CURVE('',#141,#265,#333,.T.);
#335=ORIENTED_EDGE('',*,*,#334,.T.);
#336=ORIENTED_EDGE('',*,*,#270,.F.);
#337=EDGE_LOOP('',(#328,#329,#335,#336));
#338=FACE_OUTER_BOUND('',#337,.T.);
#339=ADVANCED_FACE('',(#338),#327,.T.);
#340=CARTESIAN_POINT('',(16.894247478164164,-2.999999999999998,-12.500000000000000));
#341=DIRECTION('',(0.0,0.0,-1.0));
#342=DIRECTION('',(0.0,1.0,0.0));
#343=AXIS2_PLACEMENT_3D('',#340,#341,#342);
#344=PLANE('',#343);
#345=CARTESIAN_POINT('',(13.250000000000004,-2.999999999999996,-12.500000000000000));
#346=DIRECTION('',(0.0,1.0,0.0));
#347=VECTOR('',#346,2.999999999999998);
#348=LINE('',#345,#347);
#349=EDGE_CURVE('',#180,#288,#348,.T.);
#350=ORIENTED_EDGE('',*,*,#349,.F.);
#351=CARTESIAN_POINT('',(-13.249999999999996,-2.999999999999998,-12.500000000000000));
#352=VERTEX_POINT('',#351);
#353=CARTESIAN_POINT('',(-13.249999999999996,-2.999999999999998,-12.500000000000000));
#354=DIRECTION('',(1.0,0.0,0.0));
#355=VECTOR('',#354,26.499999999999996);
#356=LINE('',#353,#355);
#357=EDGE_CURVE('',#352,#180,#356,.T.);
#358=ORIENTED_EDGE('',*,*,#357,.F.);
#359=CARTESIAN_POINT('',(-13.250000000000000,-2.999999999999998,-12.500000000000000));
#360=DIRECTION('',(0.0,1.0,0.0));
#361=VECTOR('',#360,2.999999999999998);
#362=LINE('',#359,#361);
#363=EDGE_CURVE('',#352,#296,#362,.T.);
#364=ORIENTED_EDGE('',*,*,#363,.T.);
#365=ORIENTED_EDGE('',*,*,#301,.T.);
#366=EDGE_LOOP('',(#350,#358,#364,#365));
#367=FACE_OUTER_BOUND('',#366,.T.);
#368=ADVANCED_FACE('',(#367),#344,.T.);
#369=CARTESIAN_POINT('',(14.250000000000005,-3.999999999999995,-12.500000000000000));
#370=DIRECTION('',(0.0,0.0,-1.0));
#371=DIRECTION('',(-1.0,0.0,0.0));
#372=AXIS2_PLACEMENT_3D('',#369,#370,#371);
#373=PLANE('',#372);
#374=ORIENTED_EDGE('',*,*,#130,.F.);
#375=ORIENTED_EDGE('',*,*,#192,.F.);
#376=ORIENTED_EDGE('',*,*,#349,.T.);
#377=CARTESIAN_POINT('',(13.250000000000004,-3.999999999999997,-12.500000000000000));
#378=DIRECTION('',(0.0,0.0,-1.0));
#379=DIRECTION('',(0.0,1.0,0.0));
#380=AXIS2_PLACEMENT_3D('',#377,#378,#379);
#381=CIRCLE('',#380,3.999999999999999);
#382=EDGE_CURVE('',#288,#125,#381,.T.);
#383=ORIENTED_EDGE('',*,*,#382,.T.);
#384=EDGE_LOOP('',(#374,#375,#376,#383));
#385=FACE_OUTER_BOUND('',#384,.T.);
#386=ADVANCED_FACE('',(#385),#373,.T.);
#387=CARTESIAN_POINT('',(-13.250000000000000,-4.000000000000000,12.500000000000000));
#388=DIRECTION('',(0.0,0.0,-1.0));
#389=DIRECTION('',(0.0,1.0,0.0));
#390=AXIS2_PLACEMENT_3D('',#387,#388,#389);
#391=CYLINDRICAL_SURFACE('',#390,1.000000000000001);
#392=CARTESIAN_POINT('',(-13.249999999999996,-2.999999999999998,12.500000000000000));
#393=VERTEX_POINT('',#392);
#394=CARTESIAN_POINT('',(-13.249999999999996,-2.999999999999998,12.500000000000000));
#395=DIRECTION('',(0.0,0.0,-1.0));
#396=VECTOR('',#395,25.0);
#397=LINE('',#394,#396);
#398=EDGE_CURVE('',#393,#352,#397,.T.);
#399=ORIENTED_EDGE('',*,*,#398,.F.);
#400=CARTESIAN_POINT('',(-14.250000000000000,-3.999999999999999,12.500000000000000));
#401=VERTEX_POINT('',#400);
#402=CARTESIAN_POINT('',(-13.250000000000000,-4.000000000000000,12.500000000000000));
#403=DIRECTION('',(0.0,0.0,-1.0));
#404=DIRECTION('',(-1.0,0.0,0.0));
#405=AXIS2_PLACEMENT_3D('',#402,#403,#404);
#406=CIRCLE('',#405,1.000000000000001);
#407=EDGE_CURVE('',#401,#393,#406,.T.);
#408=ORIENTED_EDGE('',*,*,#407,.F.);
#409=CARTESIAN_POINT('',(-14.250000000000000,-3.999999999999999,-12.500000000000000));
#410=VERTEX_POINT('',#409);
#411=CARTESIAN_POINT('',(-14.250000000000000,-3.999999999999999,12.500000000000000));
#412=DIRECTION('',(0.0,0.0,-1.0));
#413=VECTOR('',#412,25.0);
#414=LINE('',#411,#413);
#415=EDGE_CURVE('',#401,#410,#414,.T.);
#416=ORIENTED_EDGE('',*,*,#415,.T.);
#417=CARTESIAN_POINT('',(-13.250000000000000,-4.000000000000000,-12.500000000000000));
#418=DIRECTION('',(0.0,0.0,-1.0));
#419=DIRECTION('',(-1.0,0.0,0.0));
#420=AXIS2_PLACEMENT_3D('',#417,#418,#419);
#421=CIRCLE('',#420,1.000000000000001);
#422=EDGE_CURVE('',#410,#352,#421,.T.);
#423=ORIENTED_EDGE('',*,*,#422,.T.);
#424=EDGE_LOOP('',(#399,#408,#416,#423));
#425=FACE_OUTER_BOUND('',#424,.T.);
#426=ADVANCED_FACE('',(#425),#391,.F.);
#427=CARTESIAN_POINT('',(13.250000000000004,-3.999999999999997,-12.500000000000000));
#428=DIRECTION('',(0.0,0.0,-1.0));
#429=DIRECTION('',(1.0,0.0,0.0));
#430=AXIS2_PLACEMENT_3D('',#427,#428,#429);
#431=CYLINDRICAL_SURFACE('',#430,4.000000000000002);
#432=ORIENTED_EDGE('',*,*,#208,.F.);
#433=ORIENTED_EDGE('',*,*,#382,.F.);
#434=ORIENTED_EDGE('',*,*,#293,.T.);
#435=ORIENTED_EDGE('',*,*,#246,.F.);
#436=EDGE_LOOP('',(#432,#433,#434,#435));
#437=FACE_OUTER_BOUND('',#436,.T.);
#438=ADVANCED_FACE('',(#437),#431,.T.);
#439=CARTESIAN_POINT('',(-13.249999999999996,1.665335E-015,12.500000000000000));
#440=DIRECTION('',(0.0,0.0,1.0));
#441=DIRECTION('',(1.0,0.0,0.0));
#442=AXIS2_PLACEMENT_3D('',#439,#440,#441);
#443=PLANE('',#442);
#444=CARTESIAN_POINT('',(-13.250000000000000,2.220446E-015,12.500000000000000));
#445=DIRECTION('',(0.0,-1.0,0.0));
#446=VECTOR('',#445,3.000000000000000);
#447=LINE('',#444,#446);
#448=EDGE_CURVE('',#304,#393,#447,.T.);
#449=ORIENTED_EDGE('',*,*,#448,.F.);
#450=CARTESIAN_POINT('',(-17.250000000000000,-3.999999999999999,12.500000000000000));
#451=VERTEX_POINT('',#450);
#452=CARTESIAN_POINT('',(-13.250000000000000,-4.000000000000000,12.500000000000000));
#453=DIRECTION('',(0.0,0.0,1.0));
#454=DIRECTION('',(0.0,1.0,0.0));
#455=AXIS2_PLACEMENT_3D('',#452,#453,#454);
#456=CIRCLE('',#455,4.000000000000002);
#457=EDGE_CURVE('',#304,#451,#456,.T.);
#458=ORIENTED_EDGE('',*,*,#457,.T.);
#459=CARTESIAN_POINT('',(-17.250000000000000,-4.0,12.500000000000000));
#460=DIRECTION('',(1.0,0.0,0.0));
#461=VECTOR('',#460,3.0);
#462=LINE('',#459,#461);
#463=EDGE_CURVE('',#451,#401,#462,.T.);
#464=ORIENTED_EDGE('',*,*,#463,.T.);
#465=ORIENTED_EDGE('',*,*,#407,.T.);
#466=EDGE_LOOP('',(#449,#458,#464,#465));
#467=FACE_OUTER_BOUND('',#466,.T.);
#468=ADVANCED_FACE('',(#467),#443,.T.);
#469=CARTESIAN_POINT('',(-17.250000000000000,12.894247478164163,4.857226E-016));
#470=DIRECTION('',(1.0,0.0,0.0));
#471=DIRECTION('',(0.0,0.0,-1.0));
#472=AXIS2_PLACEMENT_3D('',#469,#470,#471);
#473=PLANE('',#472);
#474=CARTESIAN_POINT('',(-17.250000000000000,-3.999999999999999,-12.500000000000000));
#475=VERTEX_POINT('',#474);
#476=CARTESIAN_POINT('',(-17.250000000000000,-3.999999999999999,-12.500000000000000));
#477=DIRECTION('',(0.0,0.0,1.0));
#478=VECTOR('',#477,25.0);
#479=LINE('',#476,#478);
#480=EDGE_CURVE('',#475,#451,#479,.T.);
#481=ORIENTED_EDGE('',*,*,#480,.F.);
#482=CARTESIAN_POINT('',(-17.250000000000000,-10.0,-12.500000000000000));
#483=VERTEX_POINT('',#482);
#484=CARTESIAN_POINT('',(-17.250000000000000,-9.999999999999996,-12.500000000000000));
#485=DIRECTION('',(0.0,1.0,0.0));
#486=VECTOR('',#485,6.0);
#487=LINE('',#484,#486);
#488=EDGE_CURVE('',#483,#475,#487,.T.);
#489=ORIENTED_EDGE('',*,*,#488,.F.);
#490=CARTESIAN_POINT('',(-17.250000000000000,-10.0,12.500000000000000));
#491=VERTEX_POINT('',#490);
#492=CARTESIAN_POINT('',(-17.250000000000000,-10.0,12.500000000000000));
#493=DIRECTION('',(0.0,0.0,-1.0));
#494=VECTOR('',#493,25.0);
#495=LINE('',#492,#494);
#496=EDGE_CURVE('',#491,#483,#495,.T.);
#497=ORIENTED_EDGE('',*,*,#496,.F.);
#498=CARTESIAN_POINT('',(-17.250000000000000,-3.999999999999999,12.500000000000000));
#499=DIRECTION('',(0.0,-1.0,0.0));
#500=VECTOR('',#499,6.000000000000001);
#501=LINE('',#498,#500);
#502=EDGE_CURVE('',#451,#491,#501,.T.);
#503=ORIENTED_EDGE('',*,*,#502,.F.);
#504=EDGE_LOOP('',(#481,#489,#497,#503));
#505=FACE_OUTER_BOUND('',#504,.T.);
#506=ADVANCED_FACE('',(#505),#473,.F.);
#507=CARTESIAN_POINT('',(-16.894247478164161,-2.999999999999998,12.500000000000000));
#508=DIRECTION('',(0.0,0.0,1.0));
#509=DIRECTION('',(0.0,-1.0,0.0));
#510=AXIS2_PLACEMENT_3D('',#507,#508,#509);
#511=PLANE('',#510);
#512=ORIENTED_EDGE('',*,*,#252,.F.);
#513=ORIENTED_EDGE('',*,*,#315,.T.);
#514=ORIENTED_EDGE('',*,*,#448,.T.);
#515=CARTESIAN_POINT('',(-13.249999999999996,-2.999999999999998,12.500000000000000));
#516=DIRECTION('',(1.0,0.0,0.0));
#517=VECTOR('',#516,26.499999999999996);
#518=LINE('',#515,#517);
#519=EDGE_CURVE('',#393,#171,#518,.T.);
#520=ORIENTED_EDGE('',*,*,#519,.T.);
#521=EDGE_LOOP('',(#512,#513,#514,#520));
#522=FACE_OUTER_BOUND('',#521,.T.);
#523=ADVANCED_FACE('',(#522),#511,.T.);
#524=CARTESIAN_POINT('',(2.220446E-015,-2.999999999999998,-4.857226E-016));
#525=DIRECTION('',(0.0,-1.0,0.0));
#526=DIRECTION('',(0.0,0.0,-1.0));
#527=AXIS2_PLACEMENT_3D('',#524,#525,#526);
#528=PLANE('',#527);
#529=ORIENTED_EDGE('',*,*,#185,.F.);
#530=ORIENTED_EDGE('',*,*,#519,.F.);
#531=ORIENTED_EDGE('',*,*,#398,.T.);
#532=ORIENTED_EDGE('',*,*,#357,.T.);
#533=EDGE_LOOP('',(#529,#530,#531,#532));
#534=FACE_OUTER_BOUND('',#533,.T.);
#535=ORIENTED_EDGE('',*,*,#101,.T.);
#536=EDGE_LOOP('',(#535));
#537=FACE_BOUND('',#536,.T.);
#538=ADVANCED_FACE('',(#534,#537),#528,.T.);
#539=CARTESIAN_POINT('',(-14.249999999999998,29.788494956328325,-12.500000000000000));
#540=DIRECTION('',(0.0,0.0,-1.0));
#541=DIRECTION('',(-1.0,0.0,0.0));
#542=AXIS2_PLACEMENT_3D('',#539,#540,#541);
#543=PLANE('',#542);
#544=CARTESIAN_POINT('',(-14.250000000000000,-3.999999999999999,-12.500000000000000));
#545=DIRECTION('',(-1.0,0.0,0.0));
#546=VECTOR('',#545,2.999999999999996);
#547=LINE('',#544,#546);
#548=EDGE_CURVE('',#410,#475,#547,.T.);
#549=ORIENTED_EDGE('',*,*,#548,.F.);
#550=CARTESIAN_POINT('',(-14.250000000000000,-10.0,-12.500000000000000));
#551=VERTEX_POINT('',#550);
#552=CARTESIAN_POINT('',(-14.250000000000000,-10.0,-12.500000000000000));
#553=DIRECTION('',(0.0,1.0,0.0));
#554=VECTOR('',#553,6.000000000000001);
#555=LINE('',#552,#554);
#556=EDGE_CURVE('',#551,#410,#555,.T.);
#557=ORIENTED_EDGE('',*,*,#556,.F.);
#558=CARTESIAN_POINT('',(-14.250000000000000,-10.0,-12.500000000000000));
#559=DIRECTION('',(-1.0,0.0,0.0));
#560=VECTOR('',#559,3.0);
#561=LINE('',#558,#560);
#562=EDGE_CURVE('',#551,#483,#561,.T.);
#563=ORIENTED_EDGE('',*,*,#562,.T.);
#564=ORIENTED_EDGE('',*,*,#488,.T.);
#565=EDGE_LOOP('',(#549,#557,#563,#564));
#566=FACE_OUTER_BOUND('',#565,.T.);
#567=ADVANCED_FACE('',(#566),#543,.T.);
#568=CARTESIAN_POINT('',(-14.250000000000000,-4.0,12.500000000000000));
#569=DIRECTION('',(0.0,0.0,1.0));
#570=DIRECTION('',(1.0,0.0,0.0));
#571=AXIS2_PLACEMENT_3D('',#568,#569,#570);
#572=PLANE('',#571);
#573=ORIENTED_EDGE('',*,*,#463,.F.);
#574=ORIENTED_EDGE('',*,*,#502,.T.);
#575=CARTESIAN_POINT('',(-14.250000000000000,-10.0,12.500000000000000));
#576=VERTEX_POINT('',#575);
#577=CARTESIAN_POINT('',(-14.250000000000000,-10.0,12.500000000000000));
#578=DIRECTION('',(-1.0,0.0,0.0));
#579=VECTOR('',#578,3.0);
#580=LINE('',#577,#579);
#581=EDGE_CURVE('',#576,#491,#580,.T.);
#582=ORIENTED_EDGE('',*,*,#581,.F.);
#583=CARTESIAN_POINT('',(-14.250000000000000,-10.0,12.500000000000000));
#584=DIRECTION('',(0.0,1.0,0.0));
#585=VECTOR('',#584,6.000000000000001);
#586=LINE('',#583,#585);
#587=EDGE_CURVE('',#576,#401,#586,.T.);
#588=ORIENTED_EDGE('',*,*,#587,.T.);
#589=EDGE_LOOP('',(#573,#574,#582,#588));
#590=FACE_OUTER_BOUND('',#589,.T.);
#591=ADVANCED_FACE('',(#590),#572,.T.);
#592=CARTESIAN_POINT('',(-14.250000000000000,-10.0,12.500000000000000));
#593=DIRECTION('',(0.0,-1.0,0.0));
#594=DIRECTION('',(0.0,0.0,-1.0));
#595=AXIS2_PLACEMENT_3D('',#592,#593,#594);
#596=PLANE('',#595);
#597=ORIENTED_EDGE('',*,*,#496,.T.);
#598=ORIENTED_EDGE('',*,*,#562,.F.);
#599=CARTESIAN_POINT('',(-14.250000000000000,-10.0,-12.500000000000000));
#600=DIRECTION('',(0.0,0.0,1.0));
#601=VECTOR('',#600,25.0);
#602=LINE('',#599,#601);
#603=EDGE_CURVE('',#551,#576,#602,.T.);
#604=ORIENTED_EDGE('',*,*,#603,.T.);
#605=ORIENTED_EDGE('',*,*,#581,.T.);
#606=EDGE_LOOP('',(#597,#598,#604,#605));
#607=FACE_OUTER_BOUND('',#606,.T.);
#608=ADVANCED_FACE('',(#607),#596,.T.);
#609=CARTESIAN_POINT('',(-13.250000000000000,-2.999999999999999,-12.500000000000000));
#610=DIRECTION('',(0.0,0.0,-1.0));
#611=DIRECTION('',(-1.0,0.0,0.0));
#612=AXIS2_PLACEMENT_3D('',#609,#610,#611);
#613=PLANE('',#612);
#614=ORIENTED_EDGE('',*,*,#363,.F.);
#615=ORIENTED_EDGE('',*,*,#422,.F.);
#616=ORIENTED_EDGE('',*,*,#548,.T.);
#617=CARTESIAN_POINT('',(-13.250000000000000,-4.000000000000000,-12.500000000000000));
#618=DIRECTION('',(0.0,0.0,-1.0));
#619=DIRECTION('',(-1.0,0.0,0.0));
#620=AXIS2_PLACEMENT_3D('',#617,#618,#619);
#621=CIRCLE('',#620,3.999999999999999);
#622=EDGE_CURVE('',#475,#296,#621,.T.);
#623=ORIENTED_EDGE('',*,*,#622,.T.);
#624=EDGE_LOOP('',(#614,#615,#616,#623));
#625=FACE_OUTER_BOUND('',#624,.T.);
#626=ADVANCED_FACE('',(#625),#613,.T.);
#627=CARTESIAN_POINT('',(14.250000000000016,-10.0,-12.500000000000000));
#628=DIRECTION('',(0.0,-1.0,0.0));
#629=DIRECTION('',(0.0,0.0,1.0));
#630=AXIS2_PLACEMENT_3D('',#627,#628,#629);
#631=PLANE('',#630);
#632=ORIENTED_EDGE('',*,*,#222,.T.);
#633=ORIENTED_EDGE('',*,*,#276,.F.);
#634=ORIENTED_EDGE('',*,*,#334,.F.);
#635=ORIENTED_EDGE('',*,*,#146,.T.);
#636=EDGE_LOOP('',(#632,#633,#634,#635));
#637=FACE_OUTER_BOUND('',#636,.T.);
#638=ADVANCED_FACE('',(#637),#631,.T.);
#639=CARTESIAN_POINT('',(-13.250000000000000,-4.000000000000000,-12.500000000000000));
#640=DIRECTION('',(0.0,0.0,-1.0));
#641=DIRECTION('',(0.0,1.0,0.0));
#642=AXIS2_PLACEMENT_3D('',#639,#640,#641);
#643=CYLINDRICAL_SURFACE('',#642,4.000000000000002);
#644=ORIENTED_EDGE('',*,*,#309,.F.);
#645=ORIENTED_EDGE('',*,*,#622,.F.);
#646=ORIENTED_EDGE('',*,*,#480,.T.);
#647=ORIENTED_EDGE('',*,*,#457,.F.);
#648=EDGE_LOOP('',(#644,#645,#646,#647));
#649=FACE_OUTER_BOUND('',#648,.T.);
#650=ADVANCED_FACE('',(#649),#643,.T.);
#651=CARTESIAN_POINT('',(-14.250000000000000,12.894247478164163,-4.857226E-016));
#652=DIRECTION('',(1.0,0.0,0.0));
#653=DIRECTION('',(0.0,0.0,-1.0));
#654=AXIS2_PLACEMENT_3D('',#651,#652,#653);
#655=PLANE('',#654);
#656=ORIENTED_EDGE('',*,*,#415,.F.);
#657=ORIENTED_EDGE('',*,*,#587,.F.);
#658=ORIENTED_EDGE('',*,*,#603,.F.);
#659=ORIENTED_EDGE('',*,*,#556,.T.);
#660=EDGE_LOOP('',(#656,#657,#658,#659));
#661=FACE_OUTER_BOUND('',#660,.T.);
#662=ADVANCED_FACE('',(#661),#655,.T.);
#663=CLOSED_SHELL('',(#116,#156,#196,#227,#257,#281,#322,#339,#368,#386,#426,#438,#468,#506,#523,#538,#567,#591,#608,#626,#638,#650,#662));
#664=MANIFOLD_SOLID_BREP('Volumenk\S\vrper1',#663);
#665=COLOUR_RGB('Standard',0.752941012382507,0.752941012382507,0.752941012382507);
#666=FILL_AREA_STYLE_COLOUR('Standard',#665);
#667=FILL_AREA_STYLE('Standard',(#666));
#668=SURFACE_STYLE_FILL_AREA(#667);
#669=SURFACE_SIDE_STYLE('Standard',(#668));
#670=SURFACE_STYLE_USAGE(.BOTH.,#669);
#671=PRESENTATION_STYLE_ASSIGNMENT((#670));
#672=STYLED_ITEM('',(#671),#664);
#673=MECHANICAL_DESIGN_GEOMETRIC_PRESENTATION_REPRESENTATION('',(#672),#36);
#674=ADVANCED_BREP_SHAPE_REPRESENTATION('ABSR',(#664),#36);
#675=SHAPE_REPRESENTATION_RELATIONSHIP('SRR','None',#674,#41);
ENDSEC;
END-ISO-10303-21;
