ISO-10303-21;
HEADER;
/* Generated by software containing ST-Developer
 * from STEP Tools, Inc. (www.steptools.com) 
 */

FILE_DESCRIPTION(
/* description */ (''),
/* implementation_level */ '2;1');

FILE_NAME(
/* name */ 'C:\\Users\\Gabriele\\Desktop\\catalogo\\BE30\\BE300400.stp',

/* time_stamp */ '2016-10-17T14:44:26+02:00',
/* author */ ('Gabriele'),
/* organization */ (''),
/* preprocessor_version */ 'ST-DEVELOPER v16.5',
/* originating_system */ 'Autodesk Inventor 2017',
/* authorisation */ '');

FILE_SCHEMA (('AUTOMOTIVE_DESIGN { 1 0 10303 214 3 1 1 }'));
ENDSEC;

DATA;
#10=MECHANICAL_DESIGN_GEOMETRIC_PRESENTATION_REPRESENTATION('',(#13),#507);
#11=SHAPE_REPRESENTATION_RELATIONSHIP('SRR','None',#516,#12);
#12=ADVANCED_BREP_SHAPE_REPRESENTATION('',(#14),#506);
#13=STYLED_ITEM('',(#525),#14);
#14=MANIFOLD_SOLID_BREP('Solido1',#213);
#15=B_SPLINE_CURVE_WITH_KNOTS('',3,(#330,#331,#332,#333,#334,#335,#336,
#337,#338,#339,#340,#341,#342,#343,#344,#345,#346,#347,#348,#349,#350,#351,
#352,#353,#354,#355,#356,#357,#358,#359,#360,#361,#362,#363,#364,#365,#366,
#367,#368,#369,#370,#371,#372,#373,#374,#375,#376,#377,#378,#379,#380,#381,
#382,#383,#384,#385,#386,#387,#388,#389,#390,#391,#392,#393,#394,#395),
 .UNSPECIFIED.,.T.,.F.,(4,2,2,2,2,2,2,2,2,2,2,2,2,2,2,2,2,2,2,2,2,2,2,2,
2,2,2,2,2,2,2,2,4),(0.,0.453536891871812,0.907073783743624,1.36062131210153,
1.81416884045943,2.26773313359454,2.72129742672965,3.17488423737705,3.62847104802444,
4.08206828229469,4.53566551656494,4.98925595936601,5.44284640216708,5.89640855116461,
6.34997070016215,6.80349627223808,7.25702184431401,7.71054741638994,8.16407298846586,
8.6176351374634,9.07119728646094,9.52478772926201,9.97837817206308,10.4319754063333,
10.8855726406036,11.339159451251,11.7927462618984,12.2463105550335,12.6998748481686,
13.1534223765265,13.6069699048844,14.0605067967562,14.514043688628),
 .UNSPECIFIED.);
#16=B_SPLINE_CURVE_WITH_KNOTS('',3,(#406,#407,#408,#409,#410,#411,#412,
#413,#414,#415,#416,#417,#418,#419,#420,#421,#422,#423,#424,#425,#426,#427,
#428,#429,#430,#431,#432,#433,#434,#435,#436,#437,#438,#439,#440,#441,#442,
#443,#444,#445,#446,#447,#448,#449,#450,#451,#452,#453,#454,#455,#456,#457,
#458,#459,#460,#461,#462,#463,#464,#465,#466,#467,#468,#469,#470,#471),
 .UNSPECIFIED.,.T.,.F.,(4,2,2,2,2,2,2,2,2,2,2,2,2,2,2,2,2,2,2,2,2,2,2,2,
2,2,2,2,2,2,2,2,4),(0.,0.453536891871812,0.907073783743625,1.36062131210153,
1.81416884045943,2.26773313359454,2.72129742672966,3.17488423737705,3.62847104802444,
4.08206828229469,4.53566551656494,4.98925595936601,5.44284640216708,5.89640855116461,
6.34997070016215,6.80349627223808,7.25702184431401,7.71054741638994,8.16407298846586,
8.6176351374634,9.07119728646094,9.52478772926201,9.97837817206308,10.4319754063333,
10.8855726406036,11.339159451251,11.7927462618984,12.2463105550335,12.6998748481686,
13.1534223765265,13.6069699048844,14.0605067967562,14.514043688628),
 .UNSPECIFIED.);
#17=PLANE('',#220);
#18=PLANE('',#226);
#19=PLANE('',#230);
#20=PLANE('',#237);
#21=PLANE('',#246);
#22=PLANE('',#247);
#23=CYLINDRICAL_SURFACE('',#218,25.5);
#24=CYLINDRICAL_SURFACE('',#224,25.5);
#25=CYLINDRICAL_SURFACE('',#232,20.);
#26=CYLINDRICAL_SURFACE('',#239,20.);
#27=FACE_BOUND('',#64,.T.);
#28=FACE_BOUND('',#66,.T.);
#29=FACE_BOUND('',#68,.T.);
#30=FACE_BOUND('',#70,.T.);
#31=FACE_BOUND('',#72,.T.);
#32=FACE_BOUND('',#74,.T.);
#33=FACE_BOUND('',#76,.T.);
#34=FACE_BOUND('',#78,.T.);
#35=FACE_BOUND('',#80,.T.);
#36=FACE_BOUND('',#82,.T.);
#37=FACE_BOUND('',#84,.T.);
#38=FACE_BOUND('',#86,.T.);
#39=FACE_BOUND('',#88,.T.);
#40=FACE_BOUND('',#90,.T.);
#41=FACE_BOUND('',#92,.T.);
#42=FACE_BOUND('',#94,.T.);
#43=FACE_BOUND('',#96,.T.);
#44=FACE_BOUND('',#98,.T.);
#45=FACE_OUTER_BOUND('',#63,.T.);
#46=FACE_OUTER_BOUND('',#65,.T.);
#47=FACE_OUTER_BOUND('',#67,.T.);
#48=FACE_OUTER_BOUND('',#69,.T.);
#49=FACE_OUTER_BOUND('',#71,.T.);
#50=FACE_OUTER_BOUND('',#73,.T.);
#51=FACE_OUTER_BOUND('',#75,.T.);
#52=FACE_OUTER_BOUND('',#77,.T.);
#53=FACE_OUTER_BOUND('',#79,.T.);
#54=FACE_OUTER_BOUND('',#81,.T.);
#55=FACE_OUTER_BOUND('',#83,.T.);
#56=FACE_OUTER_BOUND('',#85,.T.);
#57=FACE_OUTER_BOUND('',#87,.T.);
#58=FACE_OUTER_BOUND('',#89,.T.);
#59=FACE_OUTER_BOUND('',#91,.T.);
#60=FACE_OUTER_BOUND('',#93,.T.);
#61=FACE_OUTER_BOUND('',#95,.T.);
#62=FACE_OUTER_BOUND('',#97,.T.);
#63=EDGE_LOOP('',(#151));
#64=EDGE_LOOP('',(#152));
#65=EDGE_LOOP('',(#153));
#66=EDGE_LOOP('',(#154));
#67=EDGE_LOOP('',(#155));
#68=EDGE_LOOP('',(#156));
#69=EDGE_LOOP('',(#157));
#70=EDGE_LOOP('',(#158));
#71=EDGE_LOOP('',(#159));
#72=EDGE_LOOP('',(#160));
#73=EDGE_LOOP('',(#161));
#74=EDGE_LOOP('',(#162));
#75=EDGE_LOOP('',(#163));
#76=EDGE_LOOP('',(#164));
#77=EDGE_LOOP('',(#165));
#78=EDGE_LOOP('',(#166));
#79=EDGE_LOOP('',(#167));
#80=EDGE_LOOP('',(#168));
#81=EDGE_LOOP('',(#169));
#82=EDGE_LOOP('',(#170));
#83=EDGE_LOOP('',(#171));
#84=EDGE_LOOP('',(#172));
#85=EDGE_LOOP('',(#173));
#86=EDGE_LOOP('',(#174));
#87=EDGE_LOOP('',(#175));
#88=EDGE_LOOP('',(#176));
#89=EDGE_LOOP('',(#177));
#90=EDGE_LOOP('',(#178));
#91=EDGE_LOOP('',(#179));
#92=EDGE_LOOP('',(#180));
#93=EDGE_LOOP('',(#181));
#94=EDGE_LOOP('',(#182));
#95=EDGE_LOOP('',(#183));
#96=EDGE_LOOP('',(#184));
#97=EDGE_LOOP('',(#185));
#98=EDGE_LOOP('',(#186));
#99=CIRCLE('',#216,25.5);
#100=CIRCLE('',#217,25.);
#101=CIRCLE('',#219,25.5);
#102=CIRCLE('',#222,25.);
#103=CIRCLE('',#223,25.5);
#104=CIRCLE('',#225,25.5);
#105=CIRCLE('',#228,20.);
#106=CIRCLE('',#229,20.5);
#107=CIRCLE('',#231,25.);
#108=CIRCLE('',#233,20.);
#109=CIRCLE('',#235,20.);
#110=CIRCLE('',#236,20.5);
#111=CIRCLE('',#238,25.);
#112=CIRCLE('',#240,20.);
#113=CIRCLE('',#244,19.);
#114=CIRCLE('',#245,19.);
#115=VERTEX_POINT('',#321);
#116=VERTEX_POINT('',#323);
#117=VERTEX_POINT('',#326);
#118=VERTEX_POINT('',#329);
#119=VERTEX_POINT('',#397);
#120=VERTEX_POINT('',#399);
#121=VERTEX_POINT('',#402);
#122=VERTEX_POINT('',#405);
#123=VERTEX_POINT('',#473);
#124=VERTEX_POINT('',#475);
#125=VERTEX_POINT('',#478);
#126=VERTEX_POINT('',#481);
#127=VERTEX_POINT('',#484);
#128=VERTEX_POINT('',#486);
#129=VERTEX_POINT('',#489);
#130=VERTEX_POINT('',#492);
#131=VERTEX_POINT('',#497);
#132=VERTEX_POINT('',#499);
#133=EDGE_CURVE('',#115,#115,#99,.T.);
#134=EDGE_CURVE('',#116,#116,#100,.T.);
#135=EDGE_CURVE('',#117,#117,#101,.T.);
#136=EDGE_CURVE('',#118,#118,#15,.T.);
#137=EDGE_CURVE('',#119,#119,#102,.T.);
#138=EDGE_CURVE('',#120,#120,#103,.T.);
#139=EDGE_CURVE('',#121,#121,#104,.T.);
#140=EDGE_CURVE('',#122,#122,#16,.T.);
#141=EDGE_CURVE('',#123,#123,#105,.T.);
#142=EDGE_CURVE('',#124,#124,#106,.T.);
#143=EDGE_CURVE('',#125,#125,#107,.T.);
#144=EDGE_CURVE('',#126,#126,#108,.T.);
#145=EDGE_CURVE('',#127,#127,#109,.T.);
#146=EDGE_CURVE('',#128,#128,#110,.T.);
#147=EDGE_CURVE('',#129,#129,#111,.T.);
#148=EDGE_CURVE('',#130,#130,#112,.T.);
#149=EDGE_CURVE('',#131,#131,#113,.T.);
#150=EDGE_CURVE('',#132,#132,#114,.T.);
#151=ORIENTED_EDGE('',*,*,#133,.T.);
#152=ORIENTED_EDGE('',*,*,#134,.T.);
#153=ORIENTED_EDGE('',*,*,#135,.F.);
#154=ORIENTED_EDGE('',*,*,#133,.F.);
#155=ORIENTED_EDGE('',*,*,#134,.F.);
#156=ORIENTED_EDGE('',*,*,#136,.F.);
#157=ORIENTED_EDGE('',*,*,#137,.T.);
#158=ORIENTED_EDGE('',*,*,#138,.T.);
#159=ORIENTED_EDGE('',*,*,#139,.F.);
#160=ORIENTED_EDGE('',*,*,#138,.F.);
#161=ORIENTED_EDGE('',*,*,#137,.F.);
#162=ORIENTED_EDGE('',*,*,#140,.F.);
#163=ORIENTED_EDGE('',*,*,#141,.T.);
#164=ORIENTED_EDGE('',*,*,#142,.T.);
#165=ORIENTED_EDGE('',*,*,#143,.F.);
#166=ORIENTED_EDGE('',*,*,#142,.F.);
#167=ORIENTED_EDGE('',*,*,#144,.F.);
#168=ORIENTED_EDGE('',*,*,#141,.F.);
#169=ORIENTED_EDGE('',*,*,#145,.T.);
#170=ORIENTED_EDGE('',*,*,#146,.T.);
#171=ORIENTED_EDGE('',*,*,#147,.F.);
#172=ORIENTED_EDGE('',*,*,#146,.F.);
#173=ORIENTED_EDGE('',*,*,#148,.T.);
#174=ORIENTED_EDGE('',*,*,#145,.F.);
#175=ORIENTED_EDGE('',*,*,#147,.T.);
#176=ORIENTED_EDGE('',*,*,#135,.T.);
#177=ORIENTED_EDGE('',*,*,#139,.T.);
#178=ORIENTED_EDGE('',*,*,#143,.T.);
#179=ORIENTED_EDGE('',*,*,#149,.F.);
#180=ORIENTED_EDGE('',*,*,#150,.F.);
#181=ORIENTED_EDGE('',*,*,#144,.T.);
#182=ORIENTED_EDGE('',*,*,#150,.T.);
#183=ORIENTED_EDGE('',*,*,#148,.F.);
#184=ORIENTED_EDGE('',*,*,#149,.T.);
#185=ORIENTED_EDGE('',*,*,#140,.T.);
#186=ORIENTED_EDGE('',*,*,#136,.T.);
#187=TOROIDAL_SURFACE('',#215,25.,0.5);
#188=TOROIDAL_SURFACE('',#221,25.,0.5);
#189=TOROIDAL_SURFACE('',#227,20.5,0.5);
#190=TOROIDAL_SURFACE('',#234,20.5,0.5);
#191=TOROIDAL_SURFACE('',#241,25.,0.5);
#192=TOROIDAL_SURFACE('',#242,25.,0.5);
#193=TOROIDAL_SURFACE('',#243,80.,19.);
#194=TOROIDAL_SURFACE('',#248,80.,24.5);
#195=ADVANCED_FACE('',(#45,#27),#187,.T.);
#196=ADVANCED_FACE('',(#46,#28),#23,.T.);
#197=ADVANCED_FACE('',(#47,#29),#17,.T.);
#198=ADVANCED_FACE('',(#48,#30),#188,.T.);
#199=ADVANCED_FACE('',(#49,#31),#24,.T.);
#200=ADVANCED_FACE('',(#50,#32),#18,.F.);
#201=ADVANCED_FACE('',(#51,#33),#189,.T.);
#202=ADVANCED_FACE('',(#52,#34),#19,.T.);
#203=ADVANCED_FACE('',(#53,#35),#25,.F.);
#204=ADVANCED_FACE('',(#54,#36),#190,.T.);
#205=ADVANCED_FACE('',(#55,#37),#20,.F.);
#206=ADVANCED_FACE('',(#56,#38),#26,.F.);
#207=ADVANCED_FACE('',(#57,#39),#191,.T.);
#208=ADVANCED_FACE('',(#58,#40),#192,.T.);
#209=ADVANCED_FACE('',(#59,#41),#193,.F.);
#210=ADVANCED_FACE('',(#60,#42),#21,.T.);
#211=ADVANCED_FACE('',(#61,#43),#22,.F.);
#212=ADVANCED_FACE('',(#62,#44),#194,.T.);
#213=CLOSED_SHELL('',(#195,#196,#197,#198,#199,#200,#201,#202,#203,#204,
#205,#206,#207,#208,#209,#210,#211,#212));
#214=AXIS2_PLACEMENT_3D('placement',#319,#249,#250);
#215=AXIS2_PLACEMENT_3D('',#320,#251,#252);
#216=AXIS2_PLACEMENT_3D('',#322,#253,#254);
#217=AXIS2_PLACEMENT_3D('',#324,#255,#256);
#218=AXIS2_PLACEMENT_3D('',#325,#257,#258);
#219=AXIS2_PLACEMENT_3D('',#327,#259,#260);
#220=AXIS2_PLACEMENT_3D('',#328,#261,#262);
#221=AXIS2_PLACEMENT_3D('',#396,#263,#264);
#222=AXIS2_PLACEMENT_3D('',#398,#265,#266);
#223=AXIS2_PLACEMENT_3D('',#400,#267,#268);
#224=AXIS2_PLACEMENT_3D('',#401,#269,#270);
#225=AXIS2_PLACEMENT_3D('',#403,#271,#272);
#226=AXIS2_PLACEMENT_3D('',#404,#273,#274);
#227=AXIS2_PLACEMENT_3D('',#472,#275,#276);
#228=AXIS2_PLACEMENT_3D('',#474,#277,#278);
#229=AXIS2_PLACEMENT_3D('',#476,#279,#280);
#230=AXIS2_PLACEMENT_3D('',#477,#281,#282);
#231=AXIS2_PLACEMENT_3D('',#479,#283,#284);
#232=AXIS2_PLACEMENT_3D('',#480,#285,#286);
#233=AXIS2_PLACEMENT_3D('',#482,#287,#288);
#234=AXIS2_PLACEMENT_3D('',#483,#289,#290);
#235=AXIS2_PLACEMENT_3D('',#485,#291,#292);
#236=AXIS2_PLACEMENT_3D('',#487,#293,#294);
#237=AXIS2_PLACEMENT_3D('',#488,#295,#296);
#238=AXIS2_PLACEMENT_3D('',#490,#297,#298);
#239=AXIS2_PLACEMENT_3D('',#491,#299,#300);
#240=AXIS2_PLACEMENT_3D('',#493,#301,#302);
#241=AXIS2_PLACEMENT_3D('',#494,#303,#304);
#242=AXIS2_PLACEMENT_3D('',#495,#305,#306);
#243=AXIS2_PLACEMENT_3D('',#496,#307,#308);
#244=AXIS2_PLACEMENT_3D('',#498,#309,#310);
#245=AXIS2_PLACEMENT_3D('',#500,#311,#312);
#246=AXIS2_PLACEMENT_3D('',#501,#313,#314);
#247=AXIS2_PLACEMENT_3D('',#502,#315,#316);
#248=AXIS2_PLACEMENT_3D('',#503,#317,#318);
#249=DIRECTION('axis',(0.,0.,1.));
#250=DIRECTION('refdir',(1.,0.,0.));
#251=DIRECTION('center_axis',(0.,0.,1.));
#252=DIRECTION('ref_axis',(1.,0.,0.));
#253=DIRECTION('center_axis',(0.,0.,1.));
#254=DIRECTION('ref_axis',(1.,0.,0.));
#255=DIRECTION('center_axis',(0.,0.,-1.));
#256=DIRECTION('ref_axis',(1.,0.,0.));
#257=DIRECTION('center_axis',(0.,0.,1.));
#258=DIRECTION('ref_axis',(1.,0.,0.));
#259=DIRECTION('center_axis',(0.,0.,-1.));
#260=DIRECTION('ref_axis',(1.,0.,0.));
#261=DIRECTION('center_axis',(0.,0.,1.));
#262=DIRECTION('ref_axis',(1.,0.,0.));
#263=DIRECTION('center_axis',(-1.,0.,-2.22044604925031E-16));
#264=DIRECTION('ref_axis',(0.,0.,1.));
#265=DIRECTION('center_axis',(-1.,0.,-2.22044604925031E-16));
#266=DIRECTION('ref_axis',(-2.22044604925031E-16,0.,1.));
#267=DIRECTION('center_axis',(1.,0.,2.22044604925031E-16));
#268=DIRECTION('ref_axis',(-2.23133058870742E-16,0.,1.));
#269=DIRECTION('center_axis',(-1.,0.,-2.22044604925031E-16));
#270=DIRECTION('ref_axis',(-2.22044604925031E-16,0.,1.));
#271=DIRECTION('center_axis',(-1.,0.,6.12323399573677E-17));
#272=DIRECTION('ref_axis',(6.25861018783789E-17,0.,1.));
#273=DIRECTION('center_axis',(-1.,0.,-2.22044604925031E-16));
#274=DIRECTION('ref_axis',(0.,0.,1.));
#275=DIRECTION('center_axis',(1.,0.,-6.12323399573677E-17));
#276=DIRECTION('ref_axis',(0.,0.,-1.));
#277=DIRECTION('center_axis',(1.,0.,-6.12323399573677E-17));
#278=DIRECTION('ref_axis',(6.24500451351651E-17,0.,1.));
#279=DIRECTION('center_axis',(-1.,0.,6.12323399573677E-17));
#280=DIRECTION('ref_axis',(6.12323399573676E-17,0.,1.));
#281=DIRECTION('center_axis',(-1.,0.,6.12323399573677E-17));
#282=DIRECTION('ref_axis',(0.,0.,1.));
#283=DIRECTION('center_axis',(1.,0.,-6.12323399573677E-17));
#284=DIRECTION('ref_axis',(6.12323399573677E-17,0.,1.));
#285=DIRECTION('center_axis',(-1.,0.,-2.22044604925031E-16));
#286=DIRECTION('ref_axis',(-2.22044604925031E-16,0.,1.));
#287=DIRECTION('center_axis',(-1.,0.,-2.22044604925031E-16));
#288=DIRECTION('ref_axis',(-2.22044604925031E-16,0.,1.));
#289=DIRECTION('center_axis',(0.,0.,1.));
#290=DIRECTION('ref_axis',(1.,0.,0.));
#291=DIRECTION('center_axis',(0.,0.,1.));
#292=DIRECTION('ref_axis',(1.,0.,0.));
#293=DIRECTION('center_axis',(0.,0.,-1.));
#294=DIRECTION('ref_axis',(1.,0.,0.));
#295=DIRECTION('center_axis',(0.,0.,1.));
#296=DIRECTION('ref_axis',(1.,0.,0.));
#297=DIRECTION('center_axis',(0.,0.,1.));
#298=DIRECTION('ref_axis',(1.,0.,0.));
#299=DIRECTION('center_axis',(0.,0.,1.));
#300=DIRECTION('ref_axis',(1.,0.,0.));
#301=DIRECTION('center_axis',(0.,0.,1.));
#302=DIRECTION('ref_axis',(1.,0.,0.));
#303=DIRECTION('center_axis',(0.,0.,1.));
#304=DIRECTION('ref_axis',(1.,0.,0.));
#305=DIRECTION('center_axis',(-1.,0.,6.12323399573677E-17));
#306=DIRECTION('ref_axis',(0.,0.,1.));
#307=DIRECTION('center_axis',(0.,1.,0.));
#308=DIRECTION('ref_axis',(0.,0.,1.));
#309=DIRECTION('center_axis',(0.,0.,1.));
#310=DIRECTION('ref_axis',(-1.,0.,0.));
#311=DIRECTION('center_axis',(1.,0.,2.22044604925031E-16));
#312=DIRECTION('ref_axis',(-2.22044604925031E-16,0.,1.));
#313=DIRECTION('center_axis',(-1.,0.,-2.22044604925031E-16));
#314=DIRECTION('ref_axis',(0.,0.,1.));
#315=DIRECTION('center_axis',(0.,0.,1.));
#316=DIRECTION('ref_axis',(1.,0.,0.));
#317=DIRECTION('center_axis',(0.,-1.,0.));
#318=DIRECTION('ref_axis',(0.,0.,-1.));
#319=CARTESIAN_POINT('',(0.,0.,0.));
#320=CARTESIAN_POINT('Origin',(0.,0.,26.5));
#321=CARTESIAN_POINT('',(-25.5,-3.12284933782575E-15,26.5));
#322=CARTESIAN_POINT('Origin',(0.,0.,26.5));
#323=CARTESIAN_POINT('',(-25.,3.06161699786838E-15,27.));
#324=CARTESIAN_POINT('Origin',(0.,0.,27.));
#325=CARTESIAN_POINT('Origin',(0.,0.,0.));
#326=CARTESIAN_POINT('',(-25.5,3.12284933782575E-15,0.5));
#327=CARTESIAN_POINT('Origin',(0.,0.,0.5));
#328=CARTESIAN_POINT('Origin',(1.42125498691048E-15,0.,27.));
#329=CARTESIAN_POINT('',(24.4952152014627,-2.77555756156289E-16,27.));
#330=CARTESIAN_POINT('Ctrl Pts',(24.4952152014627,-2.77555756156289E-16,
27.));
#331=CARTESIAN_POINT('Ctrl Pts',(24.4952152014627,1.51178963957271,27.));
#332=CARTESIAN_POINT('Ctrl Pts',(24.3460539735961,3.16285900739694,27.));
#333=CARTESIAN_POINT('Ctrl Pts',(23.7028462011476,6.3963941434934,27.));
#334=CARTESIAN_POINT('Ctrl Pts',(23.2087997736876,7.9788599350633,27.));
#335=CARTESIAN_POINT('Ctrl Pts',(22.0516875730916,10.7723053731366,27.));
#336=CARTESIAN_POINT('Ctrl Pts',(21.2820115727431,12.2406399668602,27.));
#337=CARTESIAN_POINT('Ctrl Pts',(19.450277358049,14.9819404665801,27.));
#338=CARTESIAN_POINT('Ctrl Pts',(18.3882194349319,16.2549065671749,27.));
#339=CARTESIAN_POINT('Ctrl Pts',(16.2501050429844,18.3929583099164,27.));
#340=CARTESIAN_POINT('Ctrl Pts',(14.9770575694268,19.4550134662962,27.));
#341=CARTESIAN_POINT('Ctrl Pts',(12.2355984998427,21.2867320095886,27.));
#342=CARTESIAN_POINT('Ctrl Pts',(10.7671872025095,22.0563958435435,27.));
#343=CARTESIAN_POINT('Ctrl Pts',(7.97351247803363,23.2135353393024,27.));
#344=CARTESIAN_POINT('Ctrl Pts',(6.39086264265624,23.7076042730508,27.));
#345=CARTESIAN_POINT('Ctrl Pts',(3.15695924278503,24.3508363192396,27.));
#346=CARTESIAN_POINT('Ctrl Pts',(1.50570579133161,24.5,27.));
#347=CARTESIAN_POINT('Ctrl Pts',(-1.51824102506052,24.5,27.));
#348=CARTESIAN_POINT('Ctrl Pts',(-3.16953171128644,24.3508294385237,27.));
#349=CARTESIAN_POINT('Ctrl Pts',(-6.40351158373264,23.7075851281162,27.));
#350=CARTESIAN_POINT('Ctrl Pts',(-7.98620082172061,23.2135116394526,27.));
#351=CARTESIAN_POINT('Ctrl Pts',(-10.7800009161819,22.0563562464164,27.));
#352=CARTESIAN_POINT('Ctrl Pts',(-12.2485082786538,21.2866690199453,27.));
#353=CARTESIAN_POINT('Ctrl Pts',(-14.9901629920777,19.4548969148413,27.));
#354=CARTESIAN_POINT('Ctrl Pts',(-16.2633100156556,18.3928115462201,27.));
#355=CARTESIAN_POINT('Ctrl Pts',(-18.4015779895215,16.2547211955632,27.));
#356=CARTESIAN_POINT('Ctrl Pts',(-19.4637108914705,14.9817471325503,27.));
#357=CARTESIAN_POINT('Ctrl Pts',(-21.2955912068856,12.2404168152953,27.));
#358=CARTESIAN_POINT('Ctrl Pts',(-22.0653373886288,10.7720597379606,27.));
#359=CARTESIAN_POINT('Ctrl Pts',(-23.2225229028173,7.9786327597372,27.));
#360=CARTESIAN_POINT('Ctrl Pts',(-23.7165941586251,6.3962180464363,27.));
#361=CARTESIAN_POINT('Ctrl Pts',(-24.3598380271773,3.16277770950868,27.));
#362=CARTESIAN_POINT('Ctrl Pts',(-24.5090097403191,1.51175190691976,27.));
#363=CARTESIAN_POINT('Ctrl Pts',(-24.5090097403191,-1.51175190691976,27.));
#364=CARTESIAN_POINT('Ctrl Pts',(-24.3598380271773,-3.16277770950867,27.));
#365=CARTESIAN_POINT('Ctrl Pts',(-23.7165941586251,-6.39621804643629,27.));
#366=CARTESIAN_POINT('Ctrl Pts',(-23.2225229028173,-7.9786327597372,27.));
#367=CARTESIAN_POINT('Ctrl Pts',(-22.0653373886289,-10.7720597379606,27.));
#368=CARTESIAN_POINT('Ctrl Pts',(-21.2955912068856,-12.2404168152953,27.));
#369=CARTESIAN_POINT('Ctrl Pts',(-19.4637108914705,-14.9817471325503,27.));
#370=CARTESIAN_POINT('Ctrl Pts',(-18.4015779895215,-16.2547211955632,27.));
#371=CARTESIAN_POINT('Ctrl Pts',(-16.2633100156556,-18.3928115462201,27.));
#372=CARTESIAN_POINT('Ctrl Pts',(-14.9901629920778,-19.4548969148413,27.));
#373=CARTESIAN_POINT('Ctrl Pts',(-12.2485082786538,-21.2866690199453,27.));
#374=CARTESIAN_POINT('Ctrl Pts',(-10.7800009161819,-22.0563562464164,27.));
#375=CARTESIAN_POINT('Ctrl Pts',(-7.98620082172061,-23.2135116394526,27.));
#376=CARTESIAN_POINT('Ctrl Pts',(-6.40351158373264,-23.7075851281162,27.));
#377=CARTESIAN_POINT('Ctrl Pts',(-3.16953171128644,-24.3508294385237,27.));
#378=CARTESIAN_POINT('Ctrl Pts',(-1.51824102506053,-24.5,27.));
#379=CARTESIAN_POINT('Ctrl Pts',(1.50570579133161,-24.5,27.));
#380=CARTESIAN_POINT('Ctrl Pts',(3.15695924278502,-24.3508363192396,27.));
#381=CARTESIAN_POINT('Ctrl Pts',(6.39086264265624,-23.7076042730508,27.));
#382=CARTESIAN_POINT('Ctrl Pts',(7.97351247803362,-23.2135353393024,27.));
#383=CARTESIAN_POINT('Ctrl Pts',(10.7671872025095,-22.0563958435435,27.));
#384=CARTESIAN_POINT('Ctrl Pts',(12.2355984998427,-21.2867320095886,27.));
#385=CARTESIAN_POINT('Ctrl Pts',(14.9770575694268,-19.4550134662961,27.));
#386=CARTESIAN_POINT('Ctrl Pts',(16.2501050429844,-18.3929583099164,27.));
#387=CARTESIAN_POINT('Ctrl Pts',(18.3882194349319,-16.2549065671749,27.));
#388=CARTESIAN_POINT('Ctrl Pts',(19.450277358049,-14.98194046658,27.));
#389=CARTESIAN_POINT('Ctrl Pts',(21.2820115727431,-12.2406399668602,27.));
#390=CARTESIAN_POINT('Ctrl Pts',(22.0516875730916,-10.7723053731366,27.));
#391=CARTESIAN_POINT('Ctrl Pts',(23.2087997736876,-7.97885993506329,27.));
#392=CARTESIAN_POINT('Ctrl Pts',(23.7028462011476,-6.3963941434934,27.));
#393=CARTESIAN_POINT('Ctrl Pts',(24.3460539735961,-3.16285900739693,27.));
#394=CARTESIAN_POINT('Ctrl Pts',(24.4952152014627,-1.51178963957271,27.));
#395=CARTESIAN_POINT('Ctrl Pts',(24.4952152014627,-2.77555756156289E-16,
27.));
#396=CARTESIAN_POINT('Origin',(-79.5,0.,106.));
#397=CARTESIAN_POINT('',(-79.,-3.06161699786838E-15,81.));
#398=CARTESIAN_POINT('Origin',(-79.,0.,106.));
#399=CARTESIAN_POINT('',(-79.5,3.12284933782575E-15,80.5));
#400=CARTESIAN_POINT('Origin',(-79.5,0.,106.));
#401=CARTESIAN_POINT('Origin',(-106.,0.,106.));
#402=CARTESIAN_POINT('',(-105.5,-3.12284933782575E-15,80.5));
#403=CARTESIAN_POINT('Origin',(-105.5,0.,106.));
#404=CARTESIAN_POINT('Origin',(-79.,0.,106.));
#405=CARTESIAN_POINT('',(-79.,-5.55111512312578E-16,130.495215201463));
#406=CARTESIAN_POINT('Ctrl Pts',(-79.,-5.55111512312578E-16,130.495215201463));
#407=CARTESIAN_POINT('Ctrl Pts',(-79.,-1.51178963957271,130.495215201463));
#408=CARTESIAN_POINT('Ctrl Pts',(-79.,-3.16285900739693,130.346053973596));
#409=CARTESIAN_POINT('Ctrl Pts',(-79.,-6.3963941434934,129.702846201148));
#410=CARTESIAN_POINT('Ctrl Pts',(-79.,-7.9788599350633,129.208799773688));
#411=CARTESIAN_POINT('Ctrl Pts',(-79.,-10.7723053731366,128.051687573092));
#412=CARTESIAN_POINT('Ctrl Pts',(-79.,-12.2406399668602,127.282011572743));
#413=CARTESIAN_POINT('Ctrl Pts',(-79.,-14.9819404665801,125.450277358049));
#414=CARTESIAN_POINT('Ctrl Pts',(-79.,-16.2549065671749,124.388219434932));
#415=CARTESIAN_POINT('Ctrl Pts',(-79.,-18.3929583099164,122.250105042984));
#416=CARTESIAN_POINT('Ctrl Pts',(-79.,-19.4550134662962,120.977057569427));
#417=CARTESIAN_POINT('Ctrl Pts',(-79.,-21.2867320095886,118.235598499843));
#418=CARTESIAN_POINT('Ctrl Pts',(-79.,-22.0563958435435,116.767187202509));
#419=CARTESIAN_POINT('Ctrl Pts',(-79.,-23.2135353393023,113.973512478034));
#420=CARTESIAN_POINT('Ctrl Pts',(-79.,-23.7076042730508,112.390862642656));
#421=CARTESIAN_POINT('Ctrl Pts',(-79.,-24.3508363192396,109.156959242785));
#422=CARTESIAN_POINT('Ctrl Pts',(-79.,-24.5,107.505705791332));
#423=CARTESIAN_POINT('Ctrl Pts',(-79.,-24.5,104.481758974939));
#424=CARTESIAN_POINT('Ctrl Pts',(-79.,-24.3508294385237,102.830468288714));
#425=CARTESIAN_POINT('Ctrl Pts',(-79.,-23.7075851281162,99.5964884162674));
#426=CARTESIAN_POINT('Ctrl Pts',(-79.,-23.2135116394526,98.0137991782794));
#427=CARTESIAN_POINT('Ctrl Pts',(-79.,-22.0563562464164,95.2199990838181));
#428=CARTESIAN_POINT('Ctrl Pts',(-79.,-21.2866690199453,93.7514917213461));
#429=CARTESIAN_POINT('Ctrl Pts',(-79.,-19.4548969148413,91.0098370079223));
#430=CARTESIAN_POINT('Ctrl Pts',(-79.,-18.3928115462201,89.7366899843444));
#431=CARTESIAN_POINT('Ctrl Pts',(-79.,-16.2547211955632,87.5984220104785));
#432=CARTESIAN_POINT('Ctrl Pts',(-79.,-14.9817471325503,86.5362891085295));
#433=CARTESIAN_POINT('Ctrl Pts',(-79.,-12.2404168152953,84.7044087931144));
#434=CARTESIAN_POINT('Ctrl Pts',(-79.,-10.7720597379606,83.9346626113711));
#435=CARTESIAN_POINT('Ctrl Pts',(-79.,-7.9786327597372,82.7774770971827));
#436=CARTESIAN_POINT('Ctrl Pts',(-79.,-6.39621804643629,82.2834058413749));
#437=CARTESIAN_POINT('Ctrl Pts',(-79.,-3.16277770950867,81.6401619728227));
#438=CARTESIAN_POINT('Ctrl Pts',(-79.,-1.51175190691976,81.4909902596809));
#439=CARTESIAN_POINT('Ctrl Pts',(-79.,1.51175190691976,81.4909902596809));
#440=CARTESIAN_POINT('Ctrl Pts',(-79.,3.16277770950868,81.6401619728227));
#441=CARTESIAN_POINT('Ctrl Pts',(-79.,6.3962180464363,82.2834058413749));
#442=CARTESIAN_POINT('Ctrl Pts',(-79.,7.9786327597372,82.7774770971827));
#443=CARTESIAN_POINT('Ctrl Pts',(-79.,10.7720597379606,83.9346626113712));
#444=CARTESIAN_POINT('Ctrl Pts',(-79.,12.2404168152953,84.7044087931144));
#445=CARTESIAN_POINT('Ctrl Pts',(-79.,14.9817471325503,86.5362891085295));
#446=CARTESIAN_POINT('Ctrl Pts',(-79.,16.2547211955632,87.5984220104785));
#447=CARTESIAN_POINT('Ctrl Pts',(-79.,18.3928115462201,89.7366899843444));
#448=CARTESIAN_POINT('Ctrl Pts',(-79.,19.4548969148413,91.0098370079223));
#449=CARTESIAN_POINT('Ctrl Pts',(-79.,21.2866690199453,93.7514917213461));
#450=CARTESIAN_POINT('Ctrl Pts',(-79.,22.0563562464164,95.2199990838181));
#451=CARTESIAN_POINT('Ctrl Pts',(-79.,23.2135116394526,98.0137991782794));
#452=CARTESIAN_POINT('Ctrl Pts',(-79.,23.7075851281162,99.5964884162674));
#453=CARTESIAN_POINT('Ctrl Pts',(-79.,24.3508294385237,102.830468288714));
#454=CARTESIAN_POINT('Ctrl Pts',(-79.,24.5,104.481758974939));
#455=CARTESIAN_POINT('Ctrl Pts',(-79.,24.5,107.505705791332));
#456=CARTESIAN_POINT('Ctrl Pts',(-79.,24.3508363192396,109.156959242785));
#457=CARTESIAN_POINT('Ctrl Pts',(-79.,23.7076042730508,112.390862642656));
#458=CARTESIAN_POINT('Ctrl Pts',(-79.,23.2135353393024,113.973512478034));
#459=CARTESIAN_POINT('Ctrl Pts',(-79.,22.0563958435435,116.767187202509));
#460=CARTESIAN_POINT('Ctrl Pts',(-79.,21.2867320095886,118.235598499843));
#461=CARTESIAN_POINT('Ctrl Pts',(-79.,19.4550134662961,120.977057569427));
#462=CARTESIAN_POINT('Ctrl Pts',(-79.,18.3929583099164,122.250105042984));
#463=CARTESIAN_POINT('Ctrl Pts',(-79.,16.2549065671749,124.388219434932));
#464=CARTESIAN_POINT('Ctrl Pts',(-79.,14.9819404665801,125.450277358049));
#465=CARTESIAN_POINT('Ctrl Pts',(-79.,12.2406399668602,127.282011572743));
#466=CARTESIAN_POINT('Ctrl Pts',(-79.,10.7723053731366,128.051687573092));
#467=CARTESIAN_POINT('Ctrl Pts',(-79.,7.9788599350633,129.208799773688));
#468=CARTESIAN_POINT('Ctrl Pts',(-79.,6.39639414349341,129.702846201148));
#469=CARTESIAN_POINT('Ctrl Pts',(-79.,3.16285900739694,130.346053973596));
#470=CARTESIAN_POINT('Ctrl Pts',(-79.,1.51178963957271,130.495215201463));
#471=CARTESIAN_POINT('Ctrl Pts',(-79.,5.55111512312578E-16,130.495215201463));
#472=CARTESIAN_POINT('Origin',(-105.5,0.,106.));
#473=CARTESIAN_POINT('',(-105.5,2.44929359829471E-15,86.));
#474=CARTESIAN_POINT('Origin',(-105.5,0.,106.));
#475=CARTESIAN_POINT('',(-106.,-2.51052593825207E-15,85.5));
#476=CARTESIAN_POINT('Origin',(-106.,0.,106.));
#477=CARTESIAN_POINT('Origin',(-106.,0.,106.));
#478=CARTESIAN_POINT('',(-106.,3.06161699786838E-15,81.));
#479=CARTESIAN_POINT('Origin',(-106.,0.,106.));
#480=CARTESIAN_POINT('Origin',(-106.,0.,106.));
#481=CARTESIAN_POINT('',(-80.,2.44929359829471E-15,86.));
#482=CARTESIAN_POINT('Origin',(-80.,0.,106.));
#483=CARTESIAN_POINT('Origin',(0.,0.,0.5));
#484=CARTESIAN_POINT('',(-20.,-2.44929359829471E-15,0.5));
#485=CARTESIAN_POINT('Origin',(0.,0.,0.5));
#486=CARTESIAN_POINT('',(-20.5,2.51052593825207E-15,0.));
#487=CARTESIAN_POINT('Origin',(0.,0.,0.));
#488=CARTESIAN_POINT('Origin',(2.50032054825918E-16,0.,0.));
#489=CARTESIAN_POINT('',(-25.,-3.06161699786838E-15,0.));
#490=CARTESIAN_POINT('Origin',(0.,0.,0.));
#491=CARTESIAN_POINT('Origin',(0.,0.,0.));
#492=CARTESIAN_POINT('',(-20.,2.44929359829471E-15,26.));
#493=CARTESIAN_POINT('Origin',(0.,0.,26.));
#494=CARTESIAN_POINT('Origin',(0.,0.,0.5));
#495=CARTESIAN_POINT('Origin',(-105.5,0.,106.));
#496=CARTESIAN_POINT('Origin',(-80.,0.,26.));
#497=CARTESIAN_POINT('',(19.,2.32682891837997E-15,26.));
#498=CARTESIAN_POINT('Origin',(0.,0.,26.));
#499=CARTESIAN_POINT('',(-80.,2.32682891837997E-15,125.));
#500=CARTESIAN_POINT('Origin',(-80.,0.,106.));
#501=CARTESIAN_POINT('Origin',(-80.,0.,106.));
#502=CARTESIAN_POINT('Origin',(9.4425648294133E-16,0.,26.));
#503=CARTESIAN_POINT('Origin',(-80.,0.,26.));
#504=UNCERTAINTY_MEASURE_WITH_UNIT(LENGTH_MEASURE(0.01),#508,
'DISTANCE_ACCURACY_VALUE',
'Maximum model space distance between geometric entities at asserted c
onnectivities');
#505=UNCERTAINTY_MEASURE_WITH_UNIT(LENGTH_MEASURE(1.E-6),#508,
'DISTANCE_ACCURACY_VALUE',
'Maximum model space distance between geometric entities at asserted c
onnectivities');
#506=(
GEOMETRIC_REPRESENTATION_CONTEXT(3)
GLOBAL_UNCERTAINTY_ASSIGNED_CONTEXT((#504))
GLOBAL_UNIT_ASSIGNED_CONTEXT((#508,#511,#509))
REPRESENTATION_CONTEXT('','3D')
);
#507=(
GEOMETRIC_REPRESENTATION_CONTEXT(3)
GLOBAL_UNCERTAINTY_ASSIGNED_CONTEXT((#505))
GLOBAL_UNIT_ASSIGNED_CONTEXT((#508,#511,#509))
REPRESENTATION_CONTEXT('','3D')
);
#508=(
LENGTH_UNIT()
NAMED_UNIT(*)
SI_UNIT(.MILLI.,.METRE.)
);
#509=(
NAMED_UNIT(*)
SI_UNIT($,.STERADIAN.)
SOLID_ANGLE_UNIT()
);
#510=DIMENSIONAL_EXPONENTS(0.,0.,0.,0.,0.,0.,0.);
#511=(
CONVERSION_BASED_UNIT('degree',#513)
NAMED_UNIT(#510)
PLANE_ANGLE_UNIT()
);
#512=(
NAMED_UNIT(*)
PLANE_ANGLE_UNIT()
SI_UNIT($,.RADIAN.)
);
#513=PLANE_ANGLE_MEASURE_WITH_UNIT(PLANE_ANGLE_MEASURE(0.01745329252),#512);
#514=SHAPE_DEFINITION_REPRESENTATION(#515,#516);
#515=PRODUCT_DEFINITION_SHAPE('',$,#518);
#516=SHAPE_REPRESENTATION('',(#214),#506);
#517=PRODUCT_DEFINITION_CONTEXT('part definition',#522,'design');
#518=PRODUCT_DEFINITION('BE300400','BE30',#519,#517);
#519=PRODUCT_DEFINITION_FORMATION('',$,#524);
#520=PRODUCT_RELATED_PRODUCT_CATEGORY('BE30','BE30',(#524));
#521=APPLICATION_PROTOCOL_DEFINITION('international standard',
'automotive_design',2009,#522);
#522=APPLICATION_CONTEXT(
'Core Data for Automotive Mechanical Design Process');
#523=PRODUCT_CONTEXT('part definition',#522,'mechanical');
#524=PRODUCT('BE300400','BE30',$,(#523));
#525=PRESENTATION_STYLE_ASSIGNMENT((#526));
#526=SURFACE_STYLE_USAGE(.BOTH.,#527);
#527=SURFACE_SIDE_STYLE('',(#528));
#528=SURFACE_STYLE_FILL_AREA(#529);
#529=FILL_AREA_STYLE('',(#530));
#530=FILL_AREA_STYLE_COLOUR('',#531);
#531=COLOUR_RGB('',0.8,0.8,0.8);
ENDSEC;
END-ISO-10303-21;
