ISO-10303-21;
HEADER;
/* Generated by software containing ST-Developer
 * from STEP Tools, Inc. (www.steptools.com) 
 */

FILE_DESCRIPTION(
/* description */ (''),
/* implementation_level */ '2;1');

FILE_NAME(
/* name */ 
'Q:\\Ric010\\FF7\\FIPlastiCAD\\FIP\\Lavoro\\PVC Fittings\\PVC Fittings
 STEP\\TRIV\\TRIV063025.ipt.stp',
/* time_stamp */ '2013-10-01T14:56:30+02:00',
/* author */ ('bfaro'),
/* organization */ (''),
/* preprocessor_version */ 'ST-DEVELOPER v15.2',
/* originating_system */ 'Autodesk Inventor 2014',
/* authorisation */ '');

FILE_SCHEMA (('AUTOMOTIVE_DESIGN { 1 0 10303 214 3 1 1 }'));
ENDSEC;

DATA;
#10=SHAPE_REPRESENTATION_RELATIONSHIP('SRR','None',#419,#11);
#11=ADVANCED_BREP_SHAPE_REPRESENTATION($,(#181),#410);
#12=STYLED_ITEM($,(#427),#181);
#13=PLANE($,#202);
#14=PLANE($,#203);
#15=PLANE($,#204);
#16=PLANE($,#205);
#17=PLANE($,#206);
#18=PLANE($,#207);
#19=FACE_BOUND($,#53,.T.);
#20=FACE_BOUND($,#55,.T.);
#21=FACE_BOUND($,#56,.T.);
#22=FACE_BOUND($,#58,.T.);
#23=FACE_BOUND($,#59,.T.);
#24=FACE_BOUND($,#61,.T.);
#25=FACE_BOUND($,#63,.T.);
#26=FACE_BOUND($,#65,.T.);
#27=FACE_BOUND($,#67,.T.);
#28=FACE_BOUND($,#69,.T.);
#29=FACE_BOUND($,#70,.T.);
#30=FACE_BOUND($,#71,.T.);
#31=FACE_BOUND($,#73,.T.);
#32=FACE_BOUND($,#75,.T.);
#33=FACE_BOUND($,#76,.T.);
#34=FACE_BOUND($,#77,.T.);
#35=FACE_BOUND($,#78,.T.);
#36=FACE_BOUND($,#79,.T.);
#37=B_SPLINE_CURVE_WITH_KNOTS($,3,(#265,#266,#267,#268,#269,#270,#271,#272,
#273,#274,#275,#276,#277,#278,#279,#280,#281,#282,#283,#284,#285,#286,#287,
#288,#289,#290,#291,#292,#293,#294,#295,#296,#297,#298),.UNSPECIFIED.,.T.,
 .F.,(4,2,2,2,2,2,2,2,2,2,2,2,2,2,2,2,4),(0.,0.457654877342758,0.915309754685515,
1.37253364335858,1.82975753203165,2.28698142070472,2.74420530937779,3.20186018672054,
3.6595150640633,4.11716994139952,4.57482481873573,5.03204870740825,5.48927259608077,
5.94649648475329,6.40372037342581,6.86137525076203,7.31903012809824),
 .UNSPECIFIED.);
#38=B_SPLINE_CURVE_WITH_KNOTS($,3,(#311,#312,#313,#314,#315,#316,#317,#318,
#319,#320,#321,#322,#323,#324,#325,#326,#327,#328),.UNSPECIFIED.,.F.,.F.,
(4,2,2,2,2,2,2,2,4),(5.52232369166483,5.86783747050192,6.213351249339,6.55886502817608,
6.90437880701317,7.24915548962768,7.5939321722422,7.93870885485672,8.28348553747124),
 .UNSPECIFIED.);
#39=B_SPLINE_CURVE_WITH_KNOTS($,3,(#330,#331,#332,#333,#334,#335,#336,#337,
#338,#339,#340,#341,#342,#343,#344,#345,#346,#347),.UNSPECIFIED.,.F.,.F.,
(4,2,2,2,2,2,2,2,4),(-5.52232369166483,-5.17680991282579,-4.83129613398674,
-4.4857823551477,-4.14026857630865,-3.7954918936896,-3.45071521107055,-3.10593852845149,
-2.76116184583244),.UNSPECIFIED.);
#40=B_SPLINE_CURVE_WITH_KNOTS($,3,(#349,#350,#351,#352,#353,#354,#355,#356,
#357,#358,#359,#360,#361,#362,#363,#364,#365,#366),.UNSPECIFIED.,.F.,.F.,
(4,2,2,2,2,2,2,2,4),(8.28348553744516,8.62826222006421,8.97303890268326,
9.31781558530232,9.66259226792137,10.0081060467604,10.3536198255995,10.6991336044385,
11.0446473832776),.UNSPECIFIED.);
#41=B_SPLINE_CURVE_WITH_KNOTS($,3,(#367,#368,#369,#370,#371,#372,#373,#374,
#375,#376,#377,#378,#379,#380,#381,#382,#383,#384),.UNSPECIFIED.,.F.,.F.,
(4,2,2,2,2,2,2,2,4),(-2.76116184580636,-2.41638516319184,-2.07160848057732,
-1.72683179796281,-1.38205511534829,-1.03654133651121,-0.691027557674121,
-0.345513778837038,4.61852778244065E-014),.UNSPECIFIED.);
#42=FACE_OUTER_BOUND($,#52,.T.);
#43=FACE_OUTER_BOUND($,#54,.T.);
#44=FACE_OUTER_BOUND($,#57,.T.);
#45=FACE_OUTER_BOUND($,#60,.T.);
#46=FACE_OUTER_BOUND($,#62,.T.);
#47=FACE_OUTER_BOUND($,#64,.T.);
#48=FACE_OUTER_BOUND($,#66,.T.);
#49=FACE_OUTER_BOUND($,#68,.T.);
#50=FACE_OUTER_BOUND($,#72,.T.);
#51=FACE_OUTER_BOUND($,#74,.T.);
#52=EDGE_LOOP($,(#126));
#53=EDGE_LOOP($,(#127));
#54=EDGE_LOOP($,(#128));
#55=EDGE_LOOP($,(#129));
#56=EDGE_LOOP($,(#130));
#57=EDGE_LOOP($,(#131));
#58=EDGE_LOOP($,(#132));
#59=EDGE_LOOP($,(#133,#134,#135,#136));
#60=EDGE_LOOP($,(#137));
#61=EDGE_LOOP($,(#138));
#62=EDGE_LOOP($,(#139,#140,#141,#142));
#63=EDGE_LOOP($,(#143));
#64=EDGE_LOOP($,(#144));
#65=EDGE_LOOP($,(#145));
#66=EDGE_LOOP($,(#146));
#67=EDGE_LOOP($,(#147));
#68=EDGE_LOOP($,(#148));
#69=EDGE_LOOP($,(#149));
#70=EDGE_LOOP($,(#150));
#71=EDGE_LOOP($,(#151));
#72=EDGE_LOOP($,(#152));
#73=EDGE_LOOP($,(#153));
#74=EDGE_LOOP($,(#154));
#75=EDGE_LOOP($,(#155));
#76=EDGE_LOOP($,(#156));
#77=EDGE_LOOP($,(#157));
#78=EDGE_LOOP($,(#158));
#79=EDGE_LOOP($,(#159));
#80=CIRCLE($,#184,12.);
#81=CIRCLE($,#186,30.5);
#82=CIRCLE($,#187,30.5);
#83=CIRCLE($,#189,38.);
#84=CIRCLE($,#190,38.);
#85=CIRCLE($,#192,31.5);
#86=CIRCLE($,#193,31.5);
#87=CIRCLE($,#195,18.);
#88=CIRCLE($,#197,31.5);
#89=CIRCLE($,#198,31.5);
#90=CIRCLE($,#200,12.5);
#91=CIRCLE($,#201,12.5);
#92=VERTEX_POINT($,#262);
#93=VERTEX_POINT($,#264);
#94=VERTEX_POINT($,#300);
#95=VERTEX_POINT($,#302);
#96=VERTEX_POINT($,#305);
#97=VERTEX_POINT($,#307);
#98=VERTEX_POINT($,#309);
#99=VERTEX_POINT($,#310);
#100=VERTEX_POINT($,#329);
#101=VERTEX_POINT($,#348);
#102=VERTEX_POINT($,#386);
#103=VERTEX_POINT($,#388);
#104=VERTEX_POINT($,#391);
#105=VERTEX_POINT($,#394);
#106=VERTEX_POINT($,#396);
#107=VERTEX_POINT($,#399);
#108=VERTEX_POINT($,#401);
#109=EDGE_CURVE($,#92,#92,#80,.T.);
#110=EDGE_CURVE($,#93,#93,#37,.T.);
#111=EDGE_CURVE($,#94,#94,#81,.T.);
#112=EDGE_CURVE($,#95,#95,#82,.T.);
#113=EDGE_CURVE($,#96,#96,#83,.T.);
#114=EDGE_CURVE($,#97,#97,#84,.T.);
#115=EDGE_CURVE($,#98,#99,#38,.T.);
#116=EDGE_CURVE($,#98,#100,#39,.T.);
#117=EDGE_CURVE($,#100,#101,#40,.T.);
#118=EDGE_CURVE($,#99,#101,#41,.T.);
#119=EDGE_CURVE($,#102,#102,#85,.T.);
#120=EDGE_CURVE($,#103,#103,#86,.T.);
#121=EDGE_CURVE($,#104,#104,#87,.T.);
#122=EDGE_CURVE($,#105,#105,#88,.T.);
#123=EDGE_CURVE($,#106,#106,#89,.T.);
#124=EDGE_CURVE($,#107,#107,#90,.T.);
#125=EDGE_CURVE($,#108,#108,#91,.T.);
#126=ORIENTED_EDGE($,*,*,#109,.F.);
#127=ORIENTED_EDGE($,*,*,#110,.F.);
#128=ORIENTED_EDGE($,*,*,#111,.F.);
#129=ORIENTED_EDGE($,*,*,#112,.F.);
#130=ORIENTED_EDGE($,*,*,#110,.T.);
#131=ORIENTED_EDGE($,*,*,#113,.F.);
#132=ORIENTED_EDGE($,*,*,#114,.T.);
#133=ORIENTED_EDGE($,*,*,#115,.F.);
#134=ORIENTED_EDGE($,*,*,#116,.T.);
#135=ORIENTED_EDGE($,*,*,#117,.T.);
#136=ORIENTED_EDGE($,*,*,#118,.F.);
#137=ORIENTED_EDGE($,*,*,#119,.T.);
#138=ORIENTED_EDGE($,*,*,#120,.F.);
#139=ORIENTED_EDGE($,*,*,#116,.F.);
#140=ORIENTED_EDGE($,*,*,#115,.T.);
#141=ORIENTED_EDGE($,*,*,#118,.T.);
#142=ORIENTED_EDGE($,*,*,#117,.F.);
#143=ORIENTED_EDGE($,*,*,#121,.F.);
#144=ORIENTED_EDGE($,*,*,#122,.T.);
#145=ORIENTED_EDGE($,*,*,#123,.F.);
#146=ORIENTED_EDGE($,*,*,#124,.T.);
#147=ORIENTED_EDGE($,*,*,#125,.F.);
#148=ORIENTED_EDGE($,*,*,#114,.F.);
#149=ORIENTED_EDGE($,*,*,#120,.T.);
#150=ORIENTED_EDGE($,*,*,#112,.T.);
#151=ORIENTED_EDGE($,*,*,#119,.F.);
#152=ORIENTED_EDGE($,*,*,#113,.T.);
#153=ORIENTED_EDGE($,*,*,#122,.F.);
#154=ORIENTED_EDGE($,*,*,#121,.T.);
#155=ORIENTED_EDGE($,*,*,#124,.F.);
#156=ORIENTED_EDGE($,*,*,#111,.T.);
#157=ORIENTED_EDGE($,*,*,#123,.T.);
#158=ORIENTED_EDGE($,*,*,#109,.T.);
#159=ORIENTED_EDGE($,*,*,#125,.T.);
#160=CYLINDRICAL_SURFACE($,#183,12.);
#161=CYLINDRICAL_SURFACE($,#185,30.5);
#162=CYLINDRICAL_SURFACE($,#188,38.);
#163=CYLINDRICAL_SURFACE($,#191,31.5);
#164=CYLINDRICAL_SURFACE($,#194,18.);
#165=CYLINDRICAL_SURFACE($,#196,31.5);
#166=CYLINDRICAL_SURFACE($,#199,12.5);
#167=ADVANCED_FACE($,(#42,#19),#160,.F.);
#168=ADVANCED_FACE($,(#43,#20,#21),#161,.F.);
#169=ADVANCED_FACE($,(#44,#22,#23),#162,.T.);
#170=ADVANCED_FACE($,(#45,#24),#163,.F.);
#171=ADVANCED_FACE($,(#46,#25),#164,.T.);
#172=ADVANCED_FACE($,(#47,#26),#165,.F.);
#173=ADVANCED_FACE($,(#48,#27),#166,.F.);
#174=ADVANCED_FACE($,(#49,#28),#13,.T.);
#175=ADVANCED_FACE($,(#29,#30),#14,.T.);
#176=ADVANCED_FACE($,(#50,#31),#15,.T.);
#177=ADVANCED_FACE($,(#51,#32),#16,.T.);
#178=ADVANCED_FACE($,(#33,#34),#17,.T.);
#179=ADVANCED_FACE($,(#35,#36),#18,.T.);
#180=CLOSED_SHELL($,(#167,#168,#169,#170,#171,#172,#173,#174,#175,#176,
#177,#178,#179));
#181=MANIFOLD_SOLID_BREP('Solido1',#180);
#182=AXIS2_PLACEMENT_3D('placement',#260,#208,#209);
#183=AXIS2_PLACEMENT_3D($,#261,#210,#211);
#184=AXIS2_PLACEMENT_3D($,#263,#212,#213);
#185=AXIS2_PLACEMENT_3D($,#299,#214,#215);
#186=AXIS2_PLACEMENT_3D($,#301,#216,#217);
#187=AXIS2_PLACEMENT_3D($,#303,#218,#219);
#188=AXIS2_PLACEMENT_3D($,#304,#220,#221);
#189=AXIS2_PLACEMENT_3D($,#306,#222,#223);
#190=AXIS2_PLACEMENT_3D($,#308,#224,#225);
#191=AXIS2_PLACEMENT_3D($,#385,#226,#227);
#192=AXIS2_PLACEMENT_3D($,#387,#228,#229);
#193=AXIS2_PLACEMENT_3D($,#389,#230,#231);
#194=AXIS2_PLACEMENT_3D($,#390,#232,#233);
#195=AXIS2_PLACEMENT_3D($,#392,#234,#235);
#196=AXIS2_PLACEMENT_3D($,#393,#236,#237);
#197=AXIS2_PLACEMENT_3D($,#395,#238,#239);
#198=AXIS2_PLACEMENT_3D($,#397,#240,#241);
#199=AXIS2_PLACEMENT_3D($,#398,#242,#243);
#200=AXIS2_PLACEMENT_3D($,#400,#244,#245);
#201=AXIS2_PLACEMENT_3D($,#402,#246,#247);
#202=AXIS2_PLACEMENT_3D($,#403,#248,#249);
#203=AXIS2_PLACEMENT_3D($,#404,#250,#251);
#204=AXIS2_PLACEMENT_3D($,#405,#252,#253);
#205=AXIS2_PLACEMENT_3D($,#406,#254,#255);
#206=AXIS2_PLACEMENT_3D($,#407,#256,#257);
#207=AXIS2_PLACEMENT_3D($,#408,#258,#259);
#208=DIRECTION('axis',(0.,0.,1.));
#209=DIRECTION('refdir',(1.,0.,0.));
#210=DIRECTION('center_axis',(-1.,0.,-4.4896611678222E-011));
#211=DIRECTION('ref_axis',(-4.4896611678222E-011,0.,1.));
#212=DIRECTION('center_axis',(-1.,0.,-4.489664E-011));
#213=DIRECTION('ref_axis',(-4.4896611678222E-011,0.,1.));
#214=DIRECTION('center_axis',(0.,0.,-1.));
#215=DIRECTION('ref_axis',(-1.,0.,0.));
#216=DIRECTION('center_axis',(0.,0.,-1.));
#217=DIRECTION('ref_axis',(-1.,0.,0.));
#218=DIRECTION('center_axis',(0.,0.,1.));
#219=DIRECTION('ref_axis',(-1.,0.,0.));
#220=DIRECTION('center_axis',(0.,0.,1.));
#221=DIRECTION('ref_axis',(1.,0.,0.));
#222=DIRECTION('center_axis',(0.,0.,1.));
#223=DIRECTION('ref_axis',(1.,0.,0.));
#224=DIRECTION('center_axis',(0.,0.,1.));
#225=DIRECTION('ref_axis',(1.,0.,0.));
#226=DIRECTION('center_axis',(0.,0.,1.));
#227=DIRECTION('ref_axis',(1.,0.,0.));
#228=DIRECTION('center_axis',(0.,0.,1.));
#229=DIRECTION('ref_axis',(1.,0.,0.));
#230=DIRECTION('center_axis',(0.,0.,1.));
#231=DIRECTION('ref_axis',(1.,0.,0.));
#232=DIRECTION('center_axis',(1.,0.,4.489664E-011));
#233=DIRECTION('ref_axis',(4.489664E-011,0.,-1.));
#234=DIRECTION('center_axis',(1.,0.,4.489664E-011));
#235=DIRECTION('ref_axis',(4.489664E-011,0.,-1.));
#236=DIRECTION('center_axis',(0.,0.,1.));
#237=DIRECTION('ref_axis',(1.,0.,0.));
#238=DIRECTION('center_axis',(0.,0.,1.));
#239=DIRECTION('ref_axis',(1.,0.,0.));
#240=DIRECTION('center_axis',(0.,0.,1.));
#241=DIRECTION('ref_axis',(1.,0.,0.));
#242=DIRECTION('center_axis',(1.,-4.28039566813665E-015,4.48947418316097E-011));
#243=DIRECTION('ref_axis',(4.48949322162662E-011,0.,-1.));
#244=DIRECTION('center_axis',(1.,0.,4.489664E-011));
#245=DIRECTION('ref_axis',(4.489664E-011,0.,-1.));
#246=DIRECTION('center_axis',(1.,0.,4.489664E-011));
#247=DIRECTION('ref_axis',(4.489664E-011,0.,-1.));
#248=DIRECTION('center_axis',(0.,0.,-1.));
#249=DIRECTION('ref_axis',(-1.,0.,0.));
#250=DIRECTION('center_axis',(0.,0.,-1.));
#251=DIRECTION('ref_axis',(-1.,0.,0.));
#252=DIRECTION('center_axis',(0.,0.,1.));
#253=DIRECTION('ref_axis',(1.,0.,0.));
#254=DIRECTION('center_axis',(1.,0.,4.489664E-011));
#255=DIRECTION('ref_axis',(4.48963533017377E-011,0.,-1.));
#256=DIRECTION('center_axis',(0.,0.,1.));
#257=DIRECTION('ref_axis',(1.,0.,0.));
#258=DIRECTION('center_axis',(1.,0.,4.489664E-011));
#259=DIRECTION('ref_axis',(4.48963533017377E-011,0.,-1.));
#260=CARTESIAN_POINT('',(0.,0.,0.));
#261=CARTESIAN_POINT('Origin',(33.5,0.,71.500000001504));
#262=CARTESIAN_POINT('',(33.5000000005388,1.46957615897682E-015,59.500000001504));
#263=CARTESIAN_POINT('Origin',(33.5,0.,71.500000001504));
#264=CARTESIAN_POINT('',(28.0401497856199,12.,71.5000000012589));
#265=CARTESIAN_POINT('Ctrl Pts',(28.0401497856199,12.,71.5000000012589));
#266=CARTESIAN_POINT('Ctrl Pts',(28.0401497856199,12.,73.0255162590681));
#267=CARTESIAN_POINT('Ctrl Pts',(28.1778034670228,11.6917330711083,74.639705982129));
#268=CARTESIAN_POINT('Ctrl Pts',(28.6569925685465,10.462407841952,77.5903557972685));
#269=CARTESIAN_POINT('Ctrl Pts',(28.9898215685063,9.54204845020731,78.9285142995751));
#270=CARTESIAN_POINT('Ctrl Pts',(29.6016984846159,7.42950949059686,81.0410532592055));
#271=CARTESIAN_POINT('Ctrl Pts',(29.9228985937388,6.09097212528804,81.9621686692159));
#272=CARTESIAN_POINT('Ctrl Pts',(30.3747823800328,3.13885285600244,83.1920709010039));
#273=CARTESIAN_POINT('Ctrl Pts',(30.5,1.52407962891023,83.5000000013693));
#274=CARTESIAN_POINT('Ctrl Pts',(30.5,-1.52407962891023,83.5000000013693));
#275=CARTESIAN_POINT('Ctrl Pts',(30.3747823800328,-3.13885285600244,83.1920709010039));
#276=CARTESIAN_POINT('Ctrl Pts',(29.9228985937388,-6.09097212528804,81.9621686692159));
#277=CARTESIAN_POINT('Ctrl Pts',(29.6016984846159,-7.42950949059686,81.0410532592055));
#278=CARTESIAN_POINT('Ctrl Pts',(28.9898215685063,-9.54204845020731,78.9285142995751));
#279=CARTESIAN_POINT('Ctrl Pts',(28.6569925685465,-10.462407841952,77.5903557972685));
#280=CARTESIAN_POINT('Ctrl Pts',(28.1778034670228,-11.6917330711083,74.639705982129));
#281=CARTESIAN_POINT('Ctrl Pts',(28.0401497856199,-12.,73.0255162590681));
#282=CARTESIAN_POINT('Ctrl Pts',(28.0401497856199,-12.,69.9744837434715));
#283=CARTESIAN_POINT('Ctrl Pts',(28.1778034670195,-11.691733071116,68.360294020432));
#284=CARTESIAN_POINT('Ctrl Pts',(28.656992568539,-10.462407841972,65.4096442053402));
#285=CARTESIAN_POINT('Ctrl Pts',(28.989821568498,-9.54204845023195,64.0714857030601));
#286=CARTESIAN_POINT('Ctrl Pts',(29.6016984846107,-7.42950949061909,61.9589467434672));
#287=CARTESIAN_POINT('Ctrl Pts',(29.9228985937365,-6.09097212530089,61.0378313334773));
#288=CARTESIAN_POINT('Ctrl Pts',(30.3747823800331,-3.13885285600307,59.8079291017227));
#289=CARTESIAN_POINT('Ctrl Pts',(30.5,-1.5240796289084,59.5000000013693));
#290=CARTESIAN_POINT('Ctrl Pts',(30.5,1.5240796289084,59.5000000013693));
#291=CARTESIAN_POINT('Ctrl Pts',(30.3747823800331,3.13885285600307,59.8079291017227));
#292=CARTESIAN_POINT('Ctrl Pts',(29.9228985937365,6.09097212530088,61.0378313334773));
#293=CARTESIAN_POINT('Ctrl Pts',(29.6016984846107,7.42950949061909,61.9589467434672));
#294=CARTESIAN_POINT('Ctrl Pts',(28.989821568498,9.54204845023194,64.0714857030601));
#295=CARTESIAN_POINT('Ctrl Pts',(28.656992568539,10.462407841972,65.4096442053402));
#296=CARTESIAN_POINT('Ctrl Pts',(28.1778034670195,11.691733071116,68.360294020432));
#297=CARTESIAN_POINT('Ctrl Pts',(28.0401497856199,12.,69.9744837434715));
#298=CARTESIAN_POINT('Ctrl Pts',(28.0401497856199,12.,71.5000000012589));
#299=CARTESIAN_POINT('Origin',(0.,0.,105.));
#300=CARTESIAN_POINT('',(30.5,3.73517273739943E-015,105.));
#301=CARTESIAN_POINT('Origin',(0.,0.,105.));
#302=CARTESIAN_POINT('',(30.5,3.73517273739943E-015,38.));
#303=CARTESIAN_POINT('Origin',(0.,0.,38.));
#304=CARTESIAN_POINT('Origin',(0.,0.,0.));
#305=CARTESIAN_POINT('',(-38.,-4.653504E-015,143.));
#306=CARTESIAN_POINT('Origin',(0.,0.,143.));
#307=CARTESIAN_POINT('',(38.,-9.307008E-015,0.));
#308=CARTESIAN_POINT('Origin',(0.,0.,0.));
#309=CARTESIAN_POINT('',(33.466401061363,-18.,71.500000001503));
#310=CARTESIAN_POINT('',(38.,-6.857796E-015,53.500000001706));
#311=CARTESIAN_POINT('Ctrl Pts',(33.466401061363,-18.,71.5000000015025));
#312=CARTESIAN_POINT('Ctrl Pts',(33.466401061363,-18.,70.3482874053789));
#313=CARTESIAN_POINT('Ctrl Pts',(33.5275794957979,-17.8877142496732,69.1646294649851));
#314=CARTESIAN_POINT('Ctrl Pts',(33.771503640708,-17.4228140526003,66.823481276622));
#315=CARTESIAN_POINT('Ctrl Pts',(33.9538759897849,-17.0703792619472,65.6659164713457));
#316=CARTESIAN_POINT('Ctrl Pts',(34.4026065401757,-16.1469550099892,63.455729743644));
#317=CARTESIAN_POINT('Ctrl Pts',(34.6687590185026,-15.5752319260747,62.4010029712723));
#318=CARTESIAN_POINT('Ctrl Pts',(35.2298582065572,-14.2607079790896,60.4541046276999));
#319=CARTESIAN_POINT('Ctrl Pts',(35.5242653402498,-13.5177367449286,59.5618926238044));
#320=CARTESIAN_POINT('Ctrl Pts',(36.085190860067,-11.9397923160913,57.9839481949991));
#321=CARTESIAN_POINT('Ctrl Pts',(36.3724114544719,-11.0484077682042,57.2412100914477));
#322=CARTESIAN_POINT('Ctrl Pts',(36.9078417684163,-9.1011452687587,55.9259973437535));
#323=CARTESIAN_POINT('Ctrl Pts',(37.1556271834151,-8.04522004697804,55.3534199863592));
#324=CARTESIAN_POINT('Ctrl Pts',(37.5665751230053,-5.83254931550916,54.4290015754291));
#325=CARTESIAN_POINT('Ctrl Pts',(37.7298133141203,-4.67372849459874,54.0764233735824));
#326=CARTESIAN_POINT('Ctrl Pts',(37.946592026626,-2.33210298375269,53.6118459260259));
#327=CARTESIAN_POINT('Ctrl Pts',(38.,-1.14925560871504,53.5000000017061));
#328=CARTESIAN_POINT('Ctrl Pts',(38.,-7.63278329429795E-016,53.5000000017061));
#329=CARTESIAN_POINT('',(38.,-9.307008E-015,89.500000001706));
#330=CARTESIAN_POINT('Ctrl Pts',(33.466401061363,-18.,71.5000000015025));
#331=CARTESIAN_POINT('Ctrl Pts',(33.466401061363,-18.,72.6517125976327));
#332=CARTESIAN_POINT('Ctrl Pts',(33.5275794957985,-17.8877142496721,73.8353705380331));
#333=CARTESIAN_POINT('Ctrl Pts',(33.7715036407084,-17.4228140525996,76.1765187264122));
#334=CARTESIAN_POINT('Ctrl Pts',(33.9538759897843,-17.0703792619483,77.3340835316981));
#335=CARTESIAN_POINT('Ctrl Pts',(34.4026065401712,-16.1469550099988,79.5442702594246));
#336=CARTESIAN_POINT('Ctrl Pts',(34.668759018495,-15.5752319260912,80.5989970318111));
#337=CARTESIAN_POINT('Ctrl Pts',(35.2298582065432,-14.2607079791236,82.5458953754184));
#338=CARTESIAN_POINT('Ctrl Pts',(35.5242653402325,-13.5177367449734,83.4381073793338));
#339=CARTESIAN_POINT('Ctrl Pts',(36.0851908600469,-11.9397923161518,85.0160518081874));
#340=CARTESIAN_POINT('Ctrl Pts',(36.3724114544525,-11.0484077682682,85.7587899117689));
#341=CARTESIAN_POINT('Ctrl Pts',(36.9078417684,-9.10114526882477,87.0740026595222));
#342=CARTESIAN_POINT('Ctrl Pts',(37.1556271834012,-8.04522004704274,87.6465800169453));
#343=CARTESIAN_POINT('Ctrl Pts',(37.5665751229967,-5.83254931556526,88.5709984279254));
#344=CARTESIAN_POINT('Ctrl Pts',(37.7298133141146,-4.67372849464747,88.9235766297932));
#345=CARTESIAN_POINT('Ctrl Pts',(37.9465920266246,-2.33210298378094,89.3881540773785));
#346=CARTESIAN_POINT('Ctrl Pts',(38.,-1.1492556087302,89.5000000017061));
#347=CARTESIAN_POINT('Ctrl Pts',(38.,-2.08166817117217E-015,89.5000000017061));
#348=CARTESIAN_POINT('',(33.466401061363,18.,71.500000001503));
#349=CARTESIAN_POINT('Ctrl Pts',(38.,2.56739074444567E-015,89.5000000017061));
#350=CARTESIAN_POINT('Ctrl Pts',(38.,1.14925560873019,89.5000000017061));
#351=CARTESIAN_POINT('Ctrl Pts',(37.9465920266246,2.33210298378093,89.3881540773785));
#352=CARTESIAN_POINT('Ctrl Pts',(37.7298133141146,4.67372849464746,88.9235766297932));
#353=CARTESIAN_POINT('Ctrl Pts',(37.5665751229967,5.83254931556526,88.5709984279254));
#354=CARTESIAN_POINT('Ctrl Pts',(37.1556271834012,8.04522004704274,87.6465800169453));
#355=CARTESIAN_POINT('Ctrl Pts',(36.9078417684,9.10114526882477,87.0740026595222));
#356=CARTESIAN_POINT('Ctrl Pts',(36.3724114544525,11.0484077682682,85.7587899117689));
#357=CARTESIAN_POINT('Ctrl Pts',(36.0851908600469,11.9397923161518,85.0160518081874));
#358=CARTESIAN_POINT('Ctrl Pts',(35.5242653402325,13.5177367449734,83.4381073793338));
#359=CARTESIAN_POINT('Ctrl Pts',(35.2298582065432,14.2607079791236,82.5458953754184));
#360=CARTESIAN_POINT('Ctrl Pts',(34.668759018495,15.5752319260912,80.5989970318111));
#361=CARTESIAN_POINT('Ctrl Pts',(34.4026065401712,16.1469550099988,79.5442702594246));
#362=CARTESIAN_POINT('Ctrl Pts',(33.9538759897843,17.0703792619483,77.3340835316981));
#363=CARTESIAN_POINT('Ctrl Pts',(33.7715036407084,17.4228140525996,76.1765187264122));
#364=CARTESIAN_POINT('Ctrl Pts',(33.5275794957985,17.8877142496721,73.8353705380331));
#365=CARTESIAN_POINT('Ctrl Pts',(33.466401061363,18.,72.6517125976327));
#366=CARTESIAN_POINT('Ctrl Pts',(33.466401061363,18.,71.5000000015025));
#367=CARTESIAN_POINT('Ctrl Pts',(38.,-4.30211422042248E-015,53.5000000017061));
#368=CARTESIAN_POINT('Ctrl Pts',(38.,1.14925560871503,53.5000000017061));
#369=CARTESIAN_POINT('Ctrl Pts',(37.946592026626,2.33210298375268,53.6118459260259));
#370=CARTESIAN_POINT('Ctrl Pts',(37.7298133141203,4.67372849459874,54.0764233735824));
#371=CARTESIAN_POINT('Ctrl Pts',(37.5665751230053,5.83254931550916,54.4290015754291));
#372=CARTESIAN_POINT('Ctrl Pts',(37.1556271834151,8.04522004697803,55.3534199863592));
#373=CARTESIAN_POINT('Ctrl Pts',(36.9078417684163,9.1011452687587,55.9259973437535));
#374=CARTESIAN_POINT('Ctrl Pts',(36.3724114544719,11.0484077682042,57.2412100914477));
#375=CARTESIAN_POINT('Ctrl Pts',(36.085190860067,11.9397923160913,57.9839481949991));
#376=CARTESIAN_POINT('Ctrl Pts',(35.5242653402498,13.5177367449286,59.5618926238043));
#377=CARTESIAN_POINT('Ctrl Pts',(35.2298582065572,14.2607079790896,60.4541046276999));
#378=CARTESIAN_POINT('Ctrl Pts',(34.6687590185026,15.5752319260747,62.4010029712723));
#379=CARTESIAN_POINT('Ctrl Pts',(34.4026065401757,16.1469550099892,63.455729743644));
#380=CARTESIAN_POINT('Ctrl Pts',(33.9538759897849,17.0703792619472,65.6659164713457));
#381=CARTESIAN_POINT('Ctrl Pts',(33.771503640708,17.4228140526003,66.823481276622));
#382=CARTESIAN_POINT('Ctrl Pts',(33.5275794957979,17.8877142496732,69.1646294649851));
#383=CARTESIAN_POINT('Ctrl Pts',(33.466401061363,18.,70.3482874053789));
#384=CARTESIAN_POINT('Ctrl Pts',(33.466401061363,18.,71.5000000015025));
#385=CARTESIAN_POINT('Origin',(-4.44089209850063E-015,0.,19.));
#386=CARTESIAN_POINT('',(-31.5,-3.85751E-015,38.));
#387=CARTESIAN_POINT('Origin',(0.,0.,38.));
#388=CARTESIAN_POINT('',(-31.5,-3.85751E-015,0.));
#389=CARTESIAN_POINT('Origin',(0.,0.,0.));
#390=CARTESIAN_POINT('Origin',(0.,0.,71.5));
#391=CARTESIAN_POINT('',(52.4999999991919,-2.204291E-015,89.5000000023571));
#392=CARTESIAN_POINT('Origin',(52.5,0.,71.500000002357));
#393=CARTESIAN_POINT('Origin',(0.,0.,124.));
#394=CARTESIAN_POINT('',(-31.5,-3.85751E-015,143.));
#395=CARTESIAN_POINT('Origin',(0.,0.,143.));
#396=CARTESIAN_POINT('',(-31.5,-3.85751E-015,105.));
#397=CARTESIAN_POINT('Origin',(0.,0.,105.));
#398=CARTESIAN_POINT('Origin',(43.,0.,71.5000000019305));
#399=CARTESIAN_POINT('',(52.4999999994388,-1.530758E-015,84.0000000023571));
#400=CARTESIAN_POINT('Origin',(52.5,0.,71.500000002357));
#401=CARTESIAN_POINT('',(33.4999999994388,-1.530758E-015,84.000000001504));
#402=CARTESIAN_POINT('Origin',(33.5,0.,71.500000001504));
#403=CARTESIAN_POINT('Origin',(0.,0.,0.));
#404=CARTESIAN_POINT('Origin',(0.,0.,38.));
#405=CARTESIAN_POINT('Origin',(0.,0.,143.));
#406=CARTESIAN_POINT('Origin',(52.5,0.,71.500000002357));
#407=CARTESIAN_POINT('Origin',(0.,0.,105.));
#408=CARTESIAN_POINT('Origin',(33.5,0.,71.500000001504));
#409=UNCERTAINTY_MEASURE_WITH_UNIT(LENGTH_MEASURE(0.01),#411,
'DISTANCE_ACCURACY_VALUE',
'Maximum model space distance between geometric entities at asserted c
onnectivities');
#410=(
GEOMETRIC_REPRESENTATION_CONTEXT(3)
GLOBAL_UNCERTAINTY_ASSIGNED_CONTEXT((#409))
GLOBAL_UNIT_ASSIGNED_CONTEXT((#411,#414,#412))
REPRESENTATION_CONTEXT('','3D')
);
#411=(
LENGTH_UNIT()
NAMED_UNIT(*)
SI_UNIT(.MILLI.,.METRE.)
);
#412=(
NAMED_UNIT(*)
SI_UNIT($,.STERADIAN.)
SOLID_ANGLE_UNIT()
);
#413=DIMENSIONAL_EXPONENTS(0.,0.,0.,0.,0.,0.,0.);
#414=(
CONVERSION_BASED_UNIT('degree',#416)
NAMED_UNIT(#413)
PLANE_ANGLE_UNIT()
);
#415=(
NAMED_UNIT(*)
PLANE_ANGLE_UNIT()
SI_UNIT($,.RADIAN.)
);
#416=PLANE_ANGLE_MEASURE_WITH_UNIT(PLANE_ANGLE_MEASURE(0.01745329252),#415);
#417=SHAPE_DEFINITION_REPRESENTATION(#418,#419);
#418=PRODUCT_DEFINITION_SHAPE('',$,#421);
#419=SHAPE_REPRESENTATION('',(#182),#410);
#420=PRODUCT_DEFINITION_CONTEXT('3D Mechanical Parts',#424,'design');
#421=PRODUCT_DEFINITION('TRIV063025','TRIV063025',#422,#420);
#422=PRODUCT_DEFINITION_FORMATION('',$,#426);
#423=APPLICATION_PROTOCOL_DEFINITION('international standard',
'automotive_design',2009,#424);
#424=APPLICATION_CONTEXT(
'Core Data for Automotive Mechanical Design Process');
#425=PRODUCT_CONTEXT('3D Mechanical Parts',#424,'mechanical');
#426=PRODUCT('TRIV063025','TRIV063025',$,(#425));
#427=PRESENTATION_STYLE_ASSIGNMENT((#428));
#428=SURFACE_STYLE_USAGE(.BOTH.,#429);
#429=SURFACE_SIDE_STYLE($,(#430));
#430=SURFACE_STYLE_FILL_AREA(#431);
#431=FILL_AREA_STYLE($,(#432));
#432=FILL_AREA_STYLE_COLOUR($,#433);
#433=COLOUR_RGB('',0.509803921568627,0.509803921568627,0.588235294117647);
ENDSEC;
END-ISO-10303-21;
