ISO-10303-21;
HEADER;
/* Generated by software containing ST-Developer
 * from STEP Tools, Inc. (www.steptools.com) 
 */

FILE_DESCRIPTION(
/* description */ (''),
/* implementation_level */ '2;1');

FILE_NAME(
/* name */ 'C:\\Users\\Gabriele\\Desktop\\catalogo\\TR40\\TR40090E.stp',

/* time_stamp */ '2016-10-17T15:26:00+02:00',
/* author */ ('Gabriele'),
/* organization */ (''),
/* preprocessor_version */ 'ST-DEVELOPER v16.5',
/* originating_system */ 'Autodesk Inventor 2017',
/* authorisation */ '');

FILE_SCHEMA (('AUTOMOTIVE_DESIGN { 1 0 10303 214 3 1 1 }'));
ENDSEC;

DATA;
#10=MECHANICAL_DESIGN_GEOMETRIC_PRESENTATION_REPRESENTATION('',(#13),#481);
#11=SHAPE_REPRESENTATION_RELATIONSHIP('SRR','None',#490,#12);
#12=ADVANCED_BREP_SHAPE_REPRESENTATION('',(#14),#480);
#13=STYLED_ITEM('',(#499),#14);
#14=MANIFOLD_SOLID_BREP('Solido1',#200);
#15=B_SPLINE_CURVE_WITH_KNOTS('',3,(#333,#334,#335,#336,#337,#338,#339,
#340,#341,#342,#343,#344,#345,#346,#347,#348,#349,#350,#351,#352,#353,#354,
#355,#356,#357,#358,#359,#360,#361,#362,#363,#364,#365,#366,#367,#368,#369,
#370,#371,#372,#373,#374,#375,#376,#377,#378,#379,#380,#381,#382,#383,#384,
#385,#386,#387,#388,#389,#390,#391,#392,#393,#394,#395,#396,#397,#398),
 .UNSPECIFIED.,.T.,.F.,(4,2,2,2,2,2,2,2,2,2,2,2,2,2,2,2,2,2,2,2,2,2,2,2,
2,2,2,2,2,2,2,2,4),(0.,0.353618230848061,0.707236461696122,1.06085469254418,
1.41447292339224,1.76762374851935,2.12077457364645,2.47392539877356,2.82707622390066,
3.18022704902777,3.53337787415487,3.88652869928197,4.23967952440908,4.59329775525714,
4.9469159861052,5.30053421695326,5.65415244780132,6.00777067864938,6.36138890949744,
6.7150071403455,7.06862537119356,7.42177619632067,7.77492702144777,8.12807784657488,
8.48122867170198,8.83437949682908,9.18753032195619,9.54068114708329,9.89383197221039,
10.2474502030585,10.6010684339065,10.9546866647546,11.3083048956026),
 .UNSPECIFIED.);
#16=B_SPLINE_CURVE_WITH_KNOTS('',3,(#409,#410,#411,#412,#413,#414,#415,
#416,#417,#418,#419,#420,#421,#422,#423,#424,#425,#426,#427,#428,#429,#430,
#431,#432,#433,#434,#435,#436,#437,#438,#439,#440,#441,#442,#443,#444,#445,
#446,#447,#448,#449,#450,#451,#452,#453,#454,#455,#456,#457,#458,#459,#460,
#461,#462,#463,#464,#465,#466,#467,#468,#469,#470,#471,#472,#473,#474),
 .UNSPECIFIED.,.T.,.F.,(4,2,2,2,2,2,2,2,2,2,2,2,2,2,2,2,2,2,2,2,2,2,2,2,
2,2,2,2,2,2,2,2,4),(0.,0.489829603041737,0.979659206083473,1.46948880912521,
1.95931841216695,2.44802687519743,2.93673533822792,3.42544380125841,3.91415226428889,
4.40286072731938,4.89156919034987,5.38027765338035,5.86898611641084,6.35881571945257,
6.84864532249431,7.33847492553605,7.82830452857779,8.31813413161952,8.80796373466126,
9.29779333770299,9.78762294074473,10.2763314037752,10.7650398668057,11.2537483298362,
11.7424567928667,12.2311652558972,12.7198737189277,13.2085821819581,13.6972906449886,
14.1871202480304,14.6769498510721,15.1667794541138,15.6566090571556),
 .UNSPECIFIED.);
#17=PLANE('',#207);
#18=PLANE('',#214);
#19=PLANE('',#221);
#20=PLANE('',#228);
#21=PLANE('',#231);
#22=PLANE('',#232);
#23=CYLINDRICAL_SURFACE('',#205,45.);
#24=CYLINDRICAL_SURFACE('',#212,45.);
#25=CYLINDRICAL_SURFACE('',#219,20.);
#26=CYLINDRICAL_SURFACE('',#223,18.5);
#27=CYLINDRICAL_SURFACE('',#225,43.5);
#28=CYLINDRICAL_SURFACE('',#229,25.5);
#29=CYLINDRICAL_SURFACE('',#230,53.);
#30=FACE_BOUND('',#65,.T.);
#31=FACE_BOUND('',#67,.T.);
#32=FACE_BOUND('',#69,.T.);
#33=FACE_BOUND('',#71,.T.);
#34=FACE_BOUND('',#73,.T.);
#35=FACE_BOUND('',#75,.T.);
#36=FACE_BOUND('',#77,.T.);
#37=FACE_BOUND('',#79,.T.);
#38=FACE_BOUND('',#81,.T.);
#39=FACE_BOUND('',#83,.T.);
#40=FACE_BOUND('',#85,.T.);
#41=FACE_BOUND('',#86,.T.);
#42=FACE_BOUND('',#88,.T.);
#43=FACE_BOUND('',#90,.T.);
#44=FACE_BOUND('',#92,.T.);
#45=FACE_BOUND('',#93,.T.);
#46=FACE_BOUND('',#95,.T.);
#47=FACE_BOUND('',#97,.T.);
#48=FACE_OUTER_BOUND('',#64,.T.);
#49=FACE_OUTER_BOUND('',#66,.T.);
#50=FACE_OUTER_BOUND('',#68,.T.);
#51=FACE_OUTER_BOUND('',#70,.T.);
#52=FACE_OUTER_BOUND('',#72,.T.);
#53=FACE_OUTER_BOUND('',#74,.T.);
#54=FACE_OUTER_BOUND('',#76,.T.);
#55=FACE_OUTER_BOUND('',#78,.T.);
#56=FACE_OUTER_BOUND('',#80,.T.);
#57=FACE_OUTER_BOUND('',#82,.T.);
#58=FACE_OUTER_BOUND('',#84,.T.);
#59=FACE_OUTER_BOUND('',#87,.T.);
#60=FACE_OUTER_BOUND('',#89,.T.);
#61=FACE_OUTER_BOUND('',#91,.T.);
#62=FACE_OUTER_BOUND('',#94,.T.);
#63=FACE_OUTER_BOUND('',#96,.T.);
#64=EDGE_LOOP('',(#147));
#65=EDGE_LOOP('',(#148));
#66=EDGE_LOOP('',(#149));
#67=EDGE_LOOP('',(#150));
#68=EDGE_LOOP('',(#151));
#69=EDGE_LOOP('',(#152));
#70=EDGE_LOOP('',(#153));
#71=EDGE_LOOP('',(#154));
#72=EDGE_LOOP('',(#155));
#73=EDGE_LOOP('',(#156));
#74=EDGE_LOOP('',(#157));
#75=EDGE_LOOP('',(#158));
#76=EDGE_LOOP('',(#159));
#77=EDGE_LOOP('',(#160));
#78=EDGE_LOOP('',(#161));
#79=EDGE_LOOP('',(#162));
#80=EDGE_LOOP('',(#163));
#81=EDGE_LOOP('',(#164));
#82=EDGE_LOOP('',(#165));
#83=EDGE_LOOP('',(#166));
#84=EDGE_LOOP('',(#167));
#85=EDGE_LOOP('',(#168));
#86=EDGE_LOOP('',(#169));
#87=EDGE_LOOP('',(#170));
#88=EDGE_LOOP('',(#171));
#89=EDGE_LOOP('',(#172));
#90=EDGE_LOOP('',(#173));
#91=EDGE_LOOP('',(#174));
#92=EDGE_LOOP('',(#175));
#93=EDGE_LOOP('',(#176));
#94=EDGE_LOOP('',(#177));
#95=EDGE_LOOP('',(#178));
#96=EDGE_LOOP('',(#179));
#97=EDGE_LOOP('',(#180));
#98=CIRCLE('',#203,45.);
#99=CIRCLE('',#204,45.5);
#100=CIRCLE('',#206,45.);
#101=CIRCLE('',#208,53.);
#102=CIRCLE('',#210,45.);
#103=CIRCLE('',#211,45.5);
#104=CIRCLE('',#213,45.);
#105=CIRCLE('',#215,53.);
#106=CIRCLE('',#217,20.);
#107=CIRCLE('',#218,20.5);
#108=CIRCLE('',#220,20.);
#109=CIRCLE('',#222,25.5);
#110=CIRCLE('',#224,18.5);
#111=CIRCLE('',#226,43.5);
#112=CIRCLE('',#227,43.5);
#113=VERTEX_POINT('',#299);
#114=VERTEX_POINT('',#301);
#115=VERTEX_POINT('',#304);
#116=VERTEX_POINT('',#307);
#117=VERTEX_POINT('',#310);
#118=VERTEX_POINT('',#312);
#119=VERTEX_POINT('',#315);
#120=VERTEX_POINT('',#318);
#121=VERTEX_POINT('',#321);
#122=VERTEX_POINT('',#323);
#123=VERTEX_POINT('',#326);
#124=VERTEX_POINT('',#329);
#125=VERTEX_POINT('',#332);
#126=VERTEX_POINT('',#399);
#127=VERTEX_POINT('',#402);
#128=VERTEX_POINT('',#404);
#129=VERTEX_POINT('',#408);
#130=EDGE_CURVE('',#113,#113,#98,.T.);
#131=EDGE_CURVE('',#114,#114,#99,.T.);
#132=EDGE_CURVE('',#115,#115,#100,.T.);
#133=EDGE_CURVE('',#116,#116,#101,.T.);
#134=EDGE_CURVE('',#117,#117,#102,.T.);
#135=EDGE_CURVE('',#118,#118,#103,.T.);
#136=EDGE_CURVE('',#119,#119,#104,.T.);
#137=EDGE_CURVE('',#120,#120,#105,.T.);
#138=EDGE_CURVE('',#121,#121,#106,.T.);
#139=EDGE_CURVE('',#122,#122,#107,.T.);
#140=EDGE_CURVE('',#123,#123,#108,.T.);
#141=EDGE_CURVE('',#124,#124,#109,.T.);
#142=EDGE_CURVE('',#125,#125,#15,.T.);
#143=EDGE_CURVE('',#126,#126,#110,.T.);
#144=EDGE_CURVE('',#127,#127,#111,.T.);
#145=EDGE_CURVE('',#128,#128,#112,.T.);
#146=EDGE_CURVE('',#129,#129,#16,.T.);
#147=ORIENTED_EDGE('',*,*,#130,.T.);
#148=ORIENTED_EDGE('',*,*,#131,.T.);
#149=ORIENTED_EDGE('',*,*,#132,.T.);
#150=ORIENTED_EDGE('',*,*,#130,.F.);
#151=ORIENTED_EDGE('',*,*,#133,.T.);
#152=ORIENTED_EDGE('',*,*,#131,.F.);
#153=ORIENTED_EDGE('',*,*,#134,.T.);
#154=ORIENTED_EDGE('',*,*,#135,.T.);
#155=ORIENTED_EDGE('',*,*,#136,.F.);
#156=ORIENTED_EDGE('',*,*,#134,.F.);
#157=ORIENTED_EDGE('',*,*,#137,.T.);
#158=ORIENTED_EDGE('',*,*,#135,.F.);
#159=ORIENTED_EDGE('',*,*,#138,.T.);
#160=ORIENTED_EDGE('',*,*,#139,.T.);
#161=ORIENTED_EDGE('',*,*,#140,.T.);
#162=ORIENTED_EDGE('',*,*,#138,.F.);
#163=ORIENTED_EDGE('',*,*,#141,.F.);
#164=ORIENTED_EDGE('',*,*,#139,.F.);
#165=ORIENTED_EDGE('',*,*,#142,.F.);
#166=ORIENTED_EDGE('',*,*,#143,.F.);
#167=ORIENTED_EDGE('',*,*,#144,.F.);
#168=ORIENTED_EDGE('',*,*,#142,.T.);
#169=ORIENTED_EDGE('',*,*,#145,.F.);
#170=ORIENTED_EDGE('',*,*,#140,.F.);
#171=ORIENTED_EDGE('',*,*,#143,.T.);
#172=ORIENTED_EDGE('',*,*,#141,.T.);
#173=ORIENTED_EDGE('',*,*,#146,.F.);
#174=ORIENTED_EDGE('',*,*,#133,.F.);
#175=ORIENTED_EDGE('',*,*,#137,.F.);
#176=ORIENTED_EDGE('',*,*,#146,.T.);
#177=ORIENTED_EDGE('',*,*,#136,.T.);
#178=ORIENTED_EDGE('',*,*,#145,.T.);
#179=ORIENTED_EDGE('',*,*,#132,.F.);
#180=ORIENTED_EDGE('',*,*,#144,.T.);
#181=TOROIDAL_SURFACE('',#202,45.5,0.5);
#182=TOROIDAL_SURFACE('',#209,45.5,0.5);
#183=TOROIDAL_SURFACE('',#216,20.5,0.5);
#184=ADVANCED_FACE('',(#48,#30),#181,.T.);
#185=ADVANCED_FACE('',(#49,#31),#23,.F.);
#186=ADVANCED_FACE('',(#50,#32),#17,.T.);
#187=ADVANCED_FACE('',(#51,#33),#182,.T.);
#188=ADVANCED_FACE('',(#52,#34),#24,.F.);
#189=ADVANCED_FACE('',(#53,#35),#18,.F.);
#190=ADVANCED_FACE('',(#54,#36),#183,.T.);
#191=ADVANCED_FACE('',(#55,#37),#25,.F.);
#192=ADVANCED_FACE('',(#56,#38),#19,.T.);
#193=ADVANCED_FACE('',(#57,#39),#26,.F.);
#194=ADVANCED_FACE('',(#58,#40,#41),#27,.F.);
#195=ADVANCED_FACE('',(#59,#42),#20,.T.);
#196=ADVANCED_FACE('',(#60,#43),#28,.T.);
#197=ADVANCED_FACE('',(#61,#44,#45),#29,.T.);
#198=ADVANCED_FACE('',(#62,#46),#21,.F.);
#199=ADVANCED_FACE('',(#63,#47),#22,.T.);
#200=CLOSED_SHELL('',(#184,#185,#186,#187,#188,#189,#190,#191,#192,#193,
#194,#195,#196,#197,#198,#199));
#201=AXIS2_PLACEMENT_3D('placement',#297,#233,#234);
#202=AXIS2_PLACEMENT_3D('',#298,#235,#236);
#203=AXIS2_PLACEMENT_3D('',#300,#237,#238);
#204=AXIS2_PLACEMENT_3D('',#302,#239,#240);
#205=AXIS2_PLACEMENT_3D('',#303,#241,#242);
#206=AXIS2_PLACEMENT_3D('',#305,#243,#244);
#207=AXIS2_PLACEMENT_3D('',#306,#245,#246);
#208=AXIS2_PLACEMENT_3D('',#308,#247,#248);
#209=AXIS2_PLACEMENT_3D('',#309,#249,#250);
#210=AXIS2_PLACEMENT_3D('',#311,#251,#252);
#211=AXIS2_PLACEMENT_3D('',#313,#253,#254);
#212=AXIS2_PLACEMENT_3D('',#314,#255,#256);
#213=AXIS2_PLACEMENT_3D('',#316,#257,#258);
#214=AXIS2_PLACEMENT_3D('',#317,#259,#260);
#215=AXIS2_PLACEMENT_3D('',#319,#261,#262);
#216=AXIS2_PLACEMENT_3D('',#320,#263,#264);
#217=AXIS2_PLACEMENT_3D('',#322,#265,#266);
#218=AXIS2_PLACEMENT_3D('',#324,#267,#268);
#219=AXIS2_PLACEMENT_3D('',#325,#269,#270);
#220=AXIS2_PLACEMENT_3D('',#327,#271,#272);
#221=AXIS2_PLACEMENT_3D('',#328,#273,#274);
#222=AXIS2_PLACEMENT_3D('',#330,#275,#276);
#223=AXIS2_PLACEMENT_3D('',#331,#277,#278);
#224=AXIS2_PLACEMENT_3D('',#400,#279,#280);
#225=AXIS2_PLACEMENT_3D('',#401,#281,#282);
#226=AXIS2_PLACEMENT_3D('',#403,#283,#284);
#227=AXIS2_PLACEMENT_3D('',#405,#285,#286);
#228=AXIS2_PLACEMENT_3D('',#406,#287,#288);
#229=AXIS2_PLACEMENT_3D('',#407,#289,#290);
#230=AXIS2_PLACEMENT_3D('',#475,#291,#292);
#231=AXIS2_PLACEMENT_3D('',#476,#293,#294);
#232=AXIS2_PLACEMENT_3D('',#477,#295,#296);
#233=DIRECTION('axis',(0.,0.,1.));
#234=DIRECTION('refdir',(1.,0.,0.));
#235=DIRECTION('center_axis',(0.,0.,-1.));
#236=DIRECTION('ref_axis',(-1.,0.,0.));
#237=DIRECTION('center_axis',(0.,0.,-1.));
#238=DIRECTION('ref_axis',(-1.,0.,0.));
#239=DIRECTION('center_axis',(0.,0.,1.));
#240=DIRECTION('ref_axis',(-1.,0.,0.));
#241=DIRECTION('center_axis',(0.,0.,-1.));
#242=DIRECTION('ref_axis',(-1.,0.,0.));
#243=DIRECTION('center_axis',(0.,0.,-1.));
#244=DIRECTION('ref_axis',(-1.,0.,0.));
#245=DIRECTION('center_axis',(0.,0.,1.));
#246=DIRECTION('ref_axis',(1.,0.,0.));
#247=DIRECTION('center_axis',(0.,0.,1.));
#248=DIRECTION('ref_axis',(-1.,0.,0.));
#249=DIRECTION('center_axis',(0.,0.,1.));
#250=DIRECTION('ref_axis',(1.,0.,0.));
#251=DIRECTION('center_axis',(0.,0.,1.));
#252=DIRECTION('ref_axis',(-1.,0.,0.));
#253=DIRECTION('center_axis',(0.,0.,-1.));
#254=DIRECTION('ref_axis',(-1.,0.,0.));
#255=DIRECTION('center_axis',(0.,0.,-1.));
#256=DIRECTION('ref_axis',(-1.,0.,0.));
#257=DIRECTION('center_axis',(0.,0.,-1.));
#258=DIRECTION('ref_axis',(-1.,0.,0.));
#259=DIRECTION('center_axis',(0.,0.,1.));
#260=DIRECTION('ref_axis',(1.,0.,0.));
#261=DIRECTION('center_axis',(0.,0.,-1.));
#262=DIRECTION('ref_axis',(-1.,0.,0.));
#263=DIRECTION('center_axis',(0.,-1.,0.));
#264=DIRECTION('ref_axis',(0.,0.,-1.));
#265=DIRECTION('center_axis',(0.,-1.,0.));
#266=DIRECTION('ref_axis',(-1.,0.,0.));
#267=DIRECTION('center_axis',(0.,1.,0.));
#268=DIRECTION('ref_axis',(-1.,0.,0.));
#269=DIRECTION('center_axis',(0.,-1.,0.));
#270=DIRECTION('ref_axis',(-1.,0.,0.));
#271=DIRECTION('center_axis',(0.,-1.,0.));
#272=DIRECTION('ref_axis',(-1.,0.,0.));
#273=DIRECTION('center_axis',(0.,1.,0.));
#274=DIRECTION('ref_axis',(0.,0.,1.));
#275=DIRECTION('center_axis',(0.,-1.,0.));
#276=DIRECTION('ref_axis',(1.,0.,0.));
#277=DIRECTION('center_axis',(0.,-1.,0.));
#278=DIRECTION('ref_axis',(-1.,0.,0.));
#279=DIRECTION('center_axis',(0.,-1.,0.));
#280=DIRECTION('ref_axis',(-1.,0.,0.));
#281=DIRECTION('center_axis',(0.,0.,1.));
#282=DIRECTION('ref_axis',(1.,0.,0.));
#283=DIRECTION('center_axis',(0.,0.,-1.));
#284=DIRECTION('ref_axis',(1.,0.,0.));
#285=DIRECTION('center_axis',(0.,0.,1.));
#286=DIRECTION('ref_axis',(1.,0.,0.));
#287=DIRECTION('center_axis',(0.,1.,0.));
#288=DIRECTION('ref_axis',(0.,0.,1.));
#289=DIRECTION('center_axis',(0.,-1.,0.));
#290=DIRECTION('ref_axis',(1.,0.,0.));
#291=DIRECTION('center_axis',(0.,0.,1.));
#292=DIRECTION('ref_axis',(-1.,0.,0.));
#293=DIRECTION('center_axis',(0.,0.,1.));
#294=DIRECTION('ref_axis',(1.,0.,0.));
#295=DIRECTION('center_axis',(0.,0.,1.));
#296=DIRECTION('ref_axis',(1.,0.,0.));
#297=CARTESIAN_POINT('',(0.,0.,0.));
#298=CARTESIAN_POINT('Origin',(0.,0.,97.5));
#299=CARTESIAN_POINT('',(45.,-5.51091059616309E-15,97.5));
#300=CARTESIAN_POINT('Origin',(0.,0.,97.5));
#301=CARTESIAN_POINT('',(45.5,5.57214293612046E-15,98.));
#302=CARTESIAN_POINT('Origin',(0.,0.,98.));
#303=CARTESIAN_POINT('Origin',(0.,0.,98.));
#304=CARTESIAN_POINT('',(45.,5.51091059616309E-15,47.));
#305=CARTESIAN_POINT('Origin',(0.,0.,47.));
#306=CARTESIAN_POINT('Origin',(-5.40885669623414E-16,0.,98.));
#307=CARTESIAN_POINT('',(53.,6.49062803548097E-15,98.));
#308=CARTESIAN_POINT('Origin',(0.,0.,98.));
#309=CARTESIAN_POINT('Origin',(0.,0.,-97.5));
#310=CARTESIAN_POINT('',(45.,5.51091059616309E-15,-97.5));
#311=CARTESIAN_POINT('Origin',(0.,0.,-97.5));
#312=CARTESIAN_POINT('',(45.5,-5.57214293612046E-15,-98.));
#313=CARTESIAN_POINT('Origin',(0.,0.,-98.));
#314=CARTESIAN_POINT('Origin',(0.,0.,-98.));
#315=CARTESIAN_POINT('',(45.,5.51091059616309E-15,-47.));
#316=CARTESIAN_POINT('Origin',(0.,0.,-47.));
#317=CARTESIAN_POINT('Origin',(-5.40885669623414E-16,0.,-98.));
#318=CARTESIAN_POINT('',(53.,6.49062803548097E-15,-98.));
#319=CARTESIAN_POINT('Origin',(0.,0.,-98.));
#320=CARTESIAN_POINT('Origin',(0.,72.5,0.));
#321=CARTESIAN_POINT('',(20.,72.5,2.44929359829471E-15));
#322=CARTESIAN_POINT('Origin',(0.,72.5,0.));
#323=CARTESIAN_POINT('',(20.5,73.,-2.51052593825207E-15));
#324=CARTESIAN_POINT('Origin',(0.,73.,0.));
#325=CARTESIAN_POINT('Origin',(0.,73.,0.));
#326=CARTESIAN_POINT('',(20.,47.,-2.44929359829471E-15));
#327=CARTESIAN_POINT('Origin',(0.,47.,0.));
#328=CARTESIAN_POINT('Origin',(1.42125498691048E-15,73.,0.));
#329=CARTESIAN_POINT('',(-25.5,73.,3.12284933782575E-15));
#330=CARTESIAN_POINT('Origin',(0.,73.,0.));
#331=CARTESIAN_POINT('Origin',(0.,47.,0.));
#332=CARTESIAN_POINT('',(18.5,39.3700393700591,8.60422844084496E-15));
#333=CARTESIAN_POINT('Ctrl Pts',(18.5,39.3700393700591,8.60422844084496E-15));
#334=CARTESIAN_POINT('Ctrl Pts',(18.5,39.3700393700591,-1.17872743616019));
#335=CARTESIAN_POINT('Ctrl Pts',(18.385547589712,39.4244867642136,-2.39199029621012));
#336=CARTESIAN_POINT('Ctrl Pts',(17.9097674670028,39.6428902311933,-4.79481044777974));
#337=CARTESIAN_POINT('Ctrl Pts',(17.5486044856958,39.8065596870602,-5.98442639776598));
#338=CARTESIAN_POINT('Ctrl Pts',(16.6004326676892,40.2112087240768,-8.25787894572225));
#339=CARTESIAN_POINT('Ctrl Pts',(16.0126719891577,40.452029323059,-9.34381003931621));
#340=CARTESIAN_POINT('Ctrl Pts',(14.6600235296351,40.961641209668,-11.3488396124667));
#341=CARTESIAN_POINT('Ctrl Pts',(13.8949857989231,41.2299280733286,-12.2679651049792));
#342=CARTESIAN_POINT('Ctrl Pts',(12.269040387182,41.7426200073709,-13.8939105167203));
#343=CARTESIAN_POINT('Ctrl Pts',(11.3504351851616,42.0057521215981,-14.6588073348454));
#344=CARTESIAN_POINT('Ctrl Pts',(9.34515057216637,42.4968675428897,-16.0119072013549));
#345=CARTESIAN_POINT('Ctrl Pts',(8.25844134761565,42.7244394569929,-16.6002153502062));
#346=CARTESIAN_POINT('Ctrl Pts',(5.98340178974194,43.1019545255746,-17.5490145686501));
#347=CARTESIAN_POINT('Ctrl Pts',(4.79299815437584,43.251945569229,-17.9102604041519));
#348=CARTESIAN_POINT('Ctrl Pts',(2.3899016582834,43.4510298715325,-18.3858268544122));
#349=CARTESIAN_POINT('Ctrl Pts',(1.17716941709035,43.5,-18.5));
#350=CARTESIAN_POINT('Ctrl Pts',(-1.17716941709035,43.5,-18.5));
#351=CARTESIAN_POINT('Ctrl Pts',(-2.3899016582834,43.4510298715325,-18.3858268544122));
#352=CARTESIAN_POINT('Ctrl Pts',(-4.79299815437584,43.251945569229,-17.9102604041519));
#353=CARTESIAN_POINT('Ctrl Pts',(-5.98340178974195,43.1019545255746,-17.5490145686501));
#354=CARTESIAN_POINT('Ctrl Pts',(-8.25844134761566,42.7244394569929,-16.6002153502062));
#355=CARTESIAN_POINT('Ctrl Pts',(-9.34515057216638,42.4968675428897,-16.0119072013549));
#356=CARTESIAN_POINT('Ctrl Pts',(-11.3504351851616,42.0057521215981,-14.6588073348454));
#357=CARTESIAN_POINT('Ctrl Pts',(-12.269040387182,41.7426200073709,-13.8939105167202));
#358=CARTESIAN_POINT('Ctrl Pts',(-13.8949857989231,41.2299280733286,-12.2679651049792));
#359=CARTESIAN_POINT('Ctrl Pts',(-14.6600235296351,40.961641209668,-11.3488396124667));
#360=CARTESIAN_POINT('Ctrl Pts',(-16.0126719891577,40.452029323059,-9.3438100393162));
#361=CARTESIAN_POINT('Ctrl Pts',(-16.6004326676892,40.2112087240768,-8.25787894572224));
#362=CARTESIAN_POINT('Ctrl Pts',(-17.5486044856958,39.8065596870602,-5.98442639776598));
#363=CARTESIAN_POINT('Ctrl Pts',(-17.9097674670028,39.6428902311933,-4.79481044777974));
#364=CARTESIAN_POINT('Ctrl Pts',(-18.385547589712,39.4244867642136,-2.39199029621013));
#365=CARTESIAN_POINT('Ctrl Pts',(-18.5,39.3700393700591,-1.17872743616019));
#366=CARTESIAN_POINT('Ctrl Pts',(-18.5,39.3700393700591,1.17872743616021));
#367=CARTESIAN_POINT('Ctrl Pts',(-18.385547589712,39.4244867642136,2.39199029621014));
#368=CARTESIAN_POINT('Ctrl Pts',(-17.9097674670028,39.6428902311933,4.79481044777976));
#369=CARTESIAN_POINT('Ctrl Pts',(-17.5486044856958,39.8065596870602,5.984426397766));
#370=CARTESIAN_POINT('Ctrl Pts',(-16.6004326676892,40.2112087240769,8.25787894572226));
#371=CARTESIAN_POINT('Ctrl Pts',(-16.0126719891577,40.4520293230591,9.34381003931622));
#372=CARTESIAN_POINT('Ctrl Pts',(-14.6600235296351,40.961641209668,11.3488396124667));
#373=CARTESIAN_POINT('Ctrl Pts',(-13.8949857989231,41.2299280733286,12.2679651049792));
#374=CARTESIAN_POINT('Ctrl Pts',(-12.269040387182,41.7426200073709,13.8939105167203));
#375=CARTESIAN_POINT('Ctrl Pts',(-11.3504351851616,42.0057521215981,14.6588073348454));
#376=CARTESIAN_POINT('Ctrl Pts',(-9.34515057216636,42.4968675428897,16.0119072013549));
#377=CARTESIAN_POINT('Ctrl Pts',(-8.25844134761564,42.7244394569929,16.6002153502062));
#378=CARTESIAN_POINT('Ctrl Pts',(-5.98340178974194,43.1019545255746,17.5490145686501));
#379=CARTESIAN_POINT('Ctrl Pts',(-4.79299815437583,43.251945569229,17.9102604041519));
#380=CARTESIAN_POINT('Ctrl Pts',(-2.3899016582834,43.4510298715325,18.3858268544122));
#381=CARTESIAN_POINT('Ctrl Pts',(-1.17716941709035,43.5,18.5));
#382=CARTESIAN_POINT('Ctrl Pts',(1.17716941709034,43.5,18.5));
#383=CARTESIAN_POINT('Ctrl Pts',(2.38990165828339,43.4510298715325,18.3858268544122));
#384=CARTESIAN_POINT('Ctrl Pts',(4.79299815437583,43.251945569229,17.9102604041519));
#385=CARTESIAN_POINT('Ctrl Pts',(5.98340178974193,43.1019545255746,17.5490145686501));
#386=CARTESIAN_POINT('Ctrl Pts',(8.25844134761564,42.7244394569929,16.6002153502062));
#387=CARTESIAN_POINT('Ctrl Pts',(9.34515057216635,42.4968675428897,16.0119072013549));
#388=CARTESIAN_POINT('Ctrl Pts',(11.3504351851616,42.0057521215981,14.6588073348454));
#389=CARTESIAN_POINT('Ctrl Pts',(12.269040387182,41.7426200073709,13.8939105167203));
#390=CARTESIAN_POINT('Ctrl Pts',(13.8949857989231,41.2299280733286,12.2679651049792));
#391=CARTESIAN_POINT('Ctrl Pts',(14.6600235296351,40.961641209668,11.3488396124667));
#392=CARTESIAN_POINT('Ctrl Pts',(16.0126719891576,40.4520293230591,9.34381003931624));
#393=CARTESIAN_POINT('Ctrl Pts',(16.6004326676892,40.2112087240769,8.25787894572228));
#394=CARTESIAN_POINT('Ctrl Pts',(17.5486044856958,39.8065596870602,5.98442639776601));
#395=CARTESIAN_POINT('Ctrl Pts',(17.9097674670028,39.6428902311934,4.79481044777977));
#396=CARTESIAN_POINT('Ctrl Pts',(18.385547589712,39.4244867642137,2.39199029621015));
#397=CARTESIAN_POINT('Ctrl Pts',(18.5,39.3700393700591,1.17872743616021));
#398=CARTESIAN_POINT('Ctrl Pts',(18.5,39.3700393700591,8.88178419700125E-15));
#399=CARTESIAN_POINT('',(18.5,47.,-2.2655965784226E-15));
#400=CARTESIAN_POINT('Origin',(0.,47.,0.));
#401=CARTESIAN_POINT('Origin',(0.,0.,-47.));
#402=CARTESIAN_POINT('',(-43.5,5.32721357629099E-15,47.));
#403=CARTESIAN_POINT('Origin',(0.,0.,47.));
#404=CARTESIAN_POINT('',(-43.5,5.32721357629099E-15,-47.));
#405=CARTESIAN_POINT('Origin',(0.,0.,-47.));
#406=CARTESIAN_POINT('Origin',(-9.4425648294133E-16,47.,0.));
#407=CARTESIAN_POINT('Origin',(0.,73.,0.));
#408=CARTESIAN_POINT('',(25.5,46.4623503495034,2.77555756156289E-16));
#409=CARTESIAN_POINT('Ctrl Pts',(25.5,46.4623503495034,2.77555756156289E-16));
#410=CARTESIAN_POINT('Ctrl Pts',(25.5,46.4623503495034,1.63276534347246));
#411=CARTESIAN_POINT('Ctrl Pts',(25.3407043984766,46.5509227573908,3.31037131311242));
#412=CARTESIAN_POINT('Ctrl Pts',(24.6816266570488,46.9036993635691,6.62775707061336));
#413=CARTESIAN_POINT('Ctrl Pts',(24.1821037276987,47.1673500679466,8.26764718727182));
#414=CARTESIAN_POINT('Ctrl Pts',(22.8737241729313,47.8155381835239,11.3982893677895));
#415=CARTESIAN_POINT('Ctrl Pts',(22.0638275374429,48.1997716382507,12.8920386268858));
#416=CARTESIAN_POINT('Ctrl Pts',(20.2019594727886,49.0092981464445,15.6492165733634));
#417=CARTESIAN_POINT('Ctrl Pts',(19.1497405225086,49.4338171595204,16.9127053180053));
#418=CARTESIAN_POINT('Ctrl Pts',(16.9152654222321,50.2422348972192,19.1471804182818));
#419=CARTESIAN_POINT('Ctrl Pts',(15.6530370805217,50.6560201949076,20.1990419550081));
#420=CARTESIAN_POINT('Ctrl Pts',(12.8953151106281,51.427237919095,22.0619517291219));
#421=CARTESIAN_POINT('Ctrl Pts',(11.3997504118234,51.7840648953621,22.8731453534465));
#422=CARTESIAN_POINT('Ctrl Pts',(8.2653349092627,52.3758334307903,24.1830382924297));
#423=CARTESIAN_POINT('Ctrl Pts',(6.62353077633367,52.6108894463542,24.6827826602872));
#424=CARTESIAN_POINT('Ctrl Pts',(3.30540816027817,52.9230679872275,25.3413732205773));
#425=CARTESIAN_POINT('Ctrl Pts',(1.62902821010162,53.,25.5));
#426=CARTESIAN_POINT('Ctrl Pts',(-1.62902821010162,53.,25.5));
#427=CARTESIAN_POINT('Ctrl Pts',(-3.30540816027817,52.9230679872275,25.3413732205773));
#428=CARTESIAN_POINT('Ctrl Pts',(-6.62353077633367,52.6108894463542,24.6827826602872));
#429=CARTESIAN_POINT('Ctrl Pts',(-8.2653349092627,52.3758334307903,24.1830382924297));
#430=CARTESIAN_POINT('Ctrl Pts',(-11.3997504118234,51.7840648953621,22.8731453534465));
#431=CARTESIAN_POINT('Ctrl Pts',(-12.8953151106281,51.427237919095,22.0619517291219));
#432=CARTESIAN_POINT('Ctrl Pts',(-15.6530370805217,50.6560201949076,20.1990419550081));
#433=CARTESIAN_POINT('Ctrl Pts',(-16.9152654222321,50.2422348972192,19.1471804182818));
#434=CARTESIAN_POINT('Ctrl Pts',(-19.1497405225086,49.4338171595204,16.9127053180053));
#435=CARTESIAN_POINT('Ctrl Pts',(-20.2019594727886,49.0092981464445,15.6492165733634));
#436=CARTESIAN_POINT('Ctrl Pts',(-22.0638275374429,48.1997716382507,12.8920386268858));
#437=CARTESIAN_POINT('Ctrl Pts',(-22.8737241729313,47.8155381835239,11.3982893677895));
#438=CARTESIAN_POINT('Ctrl Pts',(-24.1821037276987,47.1673500679466,8.26764718727182));
#439=CARTESIAN_POINT('Ctrl Pts',(-24.6816266570488,46.9036993635691,6.62775707061336));
#440=CARTESIAN_POINT('Ctrl Pts',(-25.3407043984766,46.5509227573908,3.31037131311242));
#441=CARTESIAN_POINT('Ctrl Pts',(-25.5,46.4623503495034,1.63276534347246));
#442=CARTESIAN_POINT('Ctrl Pts',(-25.5,46.4623503495034,-1.63276534347246));
#443=CARTESIAN_POINT('Ctrl Pts',(-25.3407043984766,46.5509227573908,-3.31037131311243));
#444=CARTESIAN_POINT('Ctrl Pts',(-24.6816266570488,46.9036993635692,-6.62775707061337));
#445=CARTESIAN_POINT('Ctrl Pts',(-24.1821037276987,47.1673500679466,-8.26764718727182));
#446=CARTESIAN_POINT('Ctrl Pts',(-22.8737241729313,47.8155381835239,-11.3982893677895));
#447=CARTESIAN_POINT('Ctrl Pts',(-22.0638275374429,48.1997716382507,-12.8920386268857));
#448=CARTESIAN_POINT('Ctrl Pts',(-20.2019594727886,49.0092981464445,-15.6492165733634));
#449=CARTESIAN_POINT('Ctrl Pts',(-19.1497405225086,49.4338171595204,-16.9127053180053));
#450=CARTESIAN_POINT('Ctrl Pts',(-16.9152654222321,50.2422348972192,-19.1471804182818));
#451=CARTESIAN_POINT('Ctrl Pts',(-15.6530370805217,50.6560201949076,-20.1990419550081));
#452=CARTESIAN_POINT('Ctrl Pts',(-12.8953151106281,51.427237919095,-22.0619517291219));
#453=CARTESIAN_POINT('Ctrl Pts',(-11.3997504118234,51.7840648953621,-22.8731453534464));
#454=CARTESIAN_POINT('Ctrl Pts',(-8.26533490926271,52.3758334307903,-24.1830382924297));
#455=CARTESIAN_POINT('Ctrl Pts',(-6.62353077633368,52.6108894463542,-24.6827826602872));
#456=CARTESIAN_POINT('Ctrl Pts',(-3.30540816027817,52.9230679872275,-25.3413732205773));
#457=CARTESIAN_POINT('Ctrl Pts',(-1.62902821010162,53.,-25.5));
#458=CARTESIAN_POINT('Ctrl Pts',(1.62902821010161,53.,-25.5));
#459=CARTESIAN_POINT('Ctrl Pts',(3.30540816027816,52.9230679872275,-25.3413732205773));
#460=CARTESIAN_POINT('Ctrl Pts',(6.62353077633366,52.6108894463542,-24.6827826602872));
#461=CARTESIAN_POINT('Ctrl Pts',(8.2653349092627,52.3758334307903,-24.1830382924297));
#462=CARTESIAN_POINT('Ctrl Pts',(11.3997504118234,51.7840648953621,-22.8731453534465));
#463=CARTESIAN_POINT('Ctrl Pts',(12.8953151106281,51.427237919095,-22.0619517291219));
#464=CARTESIAN_POINT('Ctrl Pts',(15.6530370805217,50.6560201949076,-20.1990419550081));
#465=CARTESIAN_POINT('Ctrl Pts',(16.9152654222321,50.2422348972192,-19.1471804182818));
#466=CARTESIAN_POINT('Ctrl Pts',(19.1497405225086,49.4338171595204,-16.9127053180053));
#467=CARTESIAN_POINT('Ctrl Pts',(20.2019594727886,49.0092981464445,-15.6492165733634));
#468=CARTESIAN_POINT('Ctrl Pts',(22.0638275374429,48.1997716382507,-12.8920386268857));
#469=CARTESIAN_POINT('Ctrl Pts',(22.8737241729313,47.8155381835239,-11.3982893677895));
#470=CARTESIAN_POINT('Ctrl Pts',(24.1821037276987,47.1673500679466,-8.26764718727183));
#471=CARTESIAN_POINT('Ctrl Pts',(24.6816266570488,46.9036993635692,-6.62775707061337));
#472=CARTESIAN_POINT('Ctrl Pts',(25.3407043984766,46.5509227573908,-3.31037131311243));
#473=CARTESIAN_POINT('Ctrl Pts',(25.5,46.4623503495034,-1.63276534347246));
#474=CARTESIAN_POINT('Ctrl Pts',(25.5,46.4623503495034,-2.77555756156289E-16));
#475=CARTESIAN_POINT('Origin',(0.,0.,0.));
#476=CARTESIAN_POINT('Origin',(-1.77506243071748E-15,0.,-47.));
#477=CARTESIAN_POINT('Origin',(-1.77506243071748E-15,0.,47.));
#478=UNCERTAINTY_MEASURE_WITH_UNIT(LENGTH_MEASURE(0.01),#482,
'DISTANCE_ACCURACY_VALUE',
'Maximum model space distance between geometric entities at asserted c
onnectivities');
#479=UNCERTAINTY_MEASURE_WITH_UNIT(LENGTH_MEASURE(1.E-6),#482,
'DISTANCE_ACCURACY_VALUE',
'Maximum model space distance between geometric entities at asserted c
onnectivities');
#480=(
GEOMETRIC_REPRESENTATION_CONTEXT(3)
GLOBAL_UNCERTAINTY_ASSIGNED_CONTEXT((#478))
GLOBAL_UNIT_ASSIGNED_CONTEXT((#482,#485,#483))
REPRESENTATION_CONTEXT('','3D')
);
#481=(
GEOMETRIC_REPRESENTATION_CONTEXT(3)
GLOBAL_UNCERTAINTY_ASSIGNED_CONTEXT((#479))
GLOBAL_UNIT_ASSIGNED_CONTEXT((#482,#485,#483))
REPRESENTATION_CONTEXT('','3D')
);
#482=(
LENGTH_UNIT()
NAMED_UNIT(*)
SI_UNIT(.MILLI.,.METRE.)
);
#483=(
NAMED_UNIT(*)
SI_UNIT($,.STERADIAN.)
SOLID_ANGLE_UNIT()
);
#484=DIMENSIONAL_EXPONENTS(0.,0.,0.,0.,0.,0.,0.);
#485=(
CONVERSION_BASED_UNIT('degree',#487)
NAMED_UNIT(#484)
PLANE_ANGLE_UNIT()
);
#486=(
NAMED_UNIT(*)
PLANE_ANGLE_UNIT()
SI_UNIT($,.RADIAN.)
);
#487=PLANE_ANGLE_MEASURE_WITH_UNIT(PLANE_ANGLE_MEASURE(0.01745329252),#486);
#488=SHAPE_DEFINITION_REPRESENTATION(#489,#490);
#489=PRODUCT_DEFINITION_SHAPE('',$,#492);
#490=SHAPE_REPRESENTATION('',(#201),#480);
#491=PRODUCT_DEFINITION_CONTEXT('part definition',#496,'design');
#492=PRODUCT_DEFINITION('TR40090E','TR40090E',#493,#491);
#493=PRODUCT_DEFINITION_FORMATION('',$,#498);
#494=PRODUCT_RELATED_PRODUCT_CATEGORY('TR40090E','TR40090E',(#498));
#495=APPLICATION_PROTOCOL_DEFINITION('international standard',
'automotive_design',2009,#496);
#496=APPLICATION_CONTEXT(
'Core Data for Automotive Mechanical Design Process');
#497=PRODUCT_CONTEXT('part definition',#496,'mechanical');
#498=PRODUCT('TR40090E','TR40090E',$,(#497));
#499=PRESENTATION_STYLE_ASSIGNMENT((#500));
#500=SURFACE_STYLE_USAGE(.BOTH.,#501);
#501=SURFACE_SIDE_STYLE('',(#502));
#502=SURFACE_STYLE_FILL_AREA(#503);
#503=FILL_AREA_STYLE('',(#504));
#504=FILL_AREA_STYLE_COLOUR('',#505);
#505=COLOUR_RGB('',0.8,0.8,0.8);
ENDSEC;
END-ISO-10303-21;
