ISO-10303-21;
HEADER;
/* Generated by software containing ST-Developer
 * from STEP Tools, Inc. (www.steptools.com) 
 */

FILE_DESCRIPTION(
/* description */ (''),
/* implementation_level */ '2;1');

FILE_NAME(
/* name */ 
'Q:\\Ric010\\FF7\\FIPlastiCAD\\FIP\\Lavoro\\PVC Fittings\\PVC Fittings
 STEP\\CIV\\CIV012.ipt.stp',
/* time_stamp */ '2013-10-01T14:36:14+02:00',
/* author */ ('bfaro'),
/* organization */ (''),
/* preprocessor_version */ 'ST-DEVELOPER v15.2',
/* originating_system */ 'Autodesk Inventor 2014',
/* authorisation */ '');

FILE_SCHEMA (('AUTOMOTIVE_DESIGN { 1 0 10303 214 3 1 1 }'));
ENDSEC;

DATA;
#10=SHAPE_REPRESENTATION_RELATIONSHIP('SRR','None',#243,#11);
#11=ADVANCED_BREP_SHAPE_REPRESENTATION($,(#116),#234);
#12=STYLED_ITEM($,(#251),#116);
#13=(
BOUNDED_CURVE()
B_SPLINE_CURVE(2,(#222,#223,#224),.UNSPECIFIED.,.F.,.F.)
B_SPLINE_CURVE_WITH_KNOTS((3,3),(-1.52984109014237,-1.25574107718361),
 .UNSPECIFIED.)
CURVE()
GEOMETRIC_REPRESENTATION_ITEM()
RATIONAL_B_SPLINE_CURVE((1.,0.990623338244312,1.))
REPRESENTATION_ITEM($)
);
#14=(
BOUNDED_SURFACE()
B_SPLINE_SURFACE(2,2,((#191,#192,#193,#194,#195,#196,#197,#198,#199),(#200,
#201,#202,#203,#204,#205,#206,#207,#208),(#209,#210,#211,#212,#213,#214,
#215,#216,#217)),.UNSPECIFIED.,.F.,.T.,.F.)
B_SPLINE_SURFACE_WITH_KNOTS((3,3),(3,2,2,2,3),(1.25574107718361,1.52984109014237),
(-3.14159265358979,-1.5707963267949,0.,1.5707963267949,3.14159265358979),
 .UNSPECIFIED.)
GEOMETRIC_REPRESENTATION_ITEM()
RATIONAL_B_SPLINE_SURFACE(((1.,0.707106781186548,1.,0.707106781186548,1.,
0.707106781186548,1.,0.707106781186548,1.),(0.990623338244312,0.700476480074208,
0.990623338244312,0.700476480074208,0.990623338244312,0.700476480074208,
0.990623338244312,0.700476480074208,0.990623338244312),(1.,0.707106781186548,
1.,0.707106781186548,1.,0.707106781186548,1.,0.707106781186548,1.)))
REPRESENTATION_ITEM($)
SURFACE()
);
#15=CYLINDRICAL_SURFACE($,#123,8.25);
#16=CYLINDRICAL_SURFACE($,#135,6.);
#17=TOROIDAL_SURFACE($,#121,7.75,0.499999999999999);
#18=TOROIDAL_SURFACE($,#125,7.25,1.);
#19=TOROIDAL_SURFACE($,#133,5.5,0.500000000000003);
#20=FACE_BOUND($,#36,.T.);
#21=FACE_BOUND($,#38,.T.);
#22=FACE_BOUND($,#40,.T.);
#23=FACE_BOUND($,#42,.T.);
#24=FACE_BOUND($,#47,.T.);
#25=FACE_BOUND($,#49,.T.);
#26=FACE_OUTER_BOUND($,#35,.T.);
#27=FACE_OUTER_BOUND($,#37,.T.);
#28=FACE_OUTER_BOUND($,#39,.T.);
#29=FACE_OUTER_BOUND($,#41,.T.);
#30=FACE_OUTER_BOUND($,#43,.T.);
#31=FACE_OUTER_BOUND($,#44,.T.);
#32=FACE_OUTER_BOUND($,#45,.T.);
#33=FACE_OUTER_BOUND($,#46,.T.);
#34=FACE_OUTER_BOUND($,#48,.T.);
#35=EDGE_LOOP($,(#81));
#36=EDGE_LOOP($,(#82));
#37=EDGE_LOOP($,(#83));
#38=EDGE_LOOP($,(#84));
#39=EDGE_LOOP($,(#85));
#40=EDGE_LOOP($,(#86));
#41=EDGE_LOOP($,(#87,#88));
#42=EDGE_LOOP($,(#89));
#43=EDGE_LOOP($,(#90,#91,#92,#93,#94,#95));
#44=EDGE_LOOP($,(#96,#97));
#45=EDGE_LOOP($,(#98));
#46=EDGE_LOOP($,(#99));
#47=EDGE_LOOP($,(#100));
#48=EDGE_LOOP($,(#101));
#49=EDGE_LOOP($,(#102));
#50=CIRCLE($,#119,7.75);
#51=CIRCLE($,#120,6.);
#52=CIRCLE($,#122,8.25);
#53=CIRCLE($,#124,8.25);
#54=CIRCLE($,#126,7.55986900188506);
#55=CIRCLE($,#127,7.55986900188506);
#56=CIRCLE($,#128,3.);
#57=CIRCLE($,#129,3.);
#58=CIRCLE($,#132,5.5);
#59=CIRCLE($,#134,6.);
#60=VERTEX_POINT($,#176);
#61=VERTEX_POINT($,#178);
#62=VERTEX_POINT($,#181);
#63=VERTEX_POINT($,#184);
#64=VERTEX_POINT($,#187);
#65=VERTEX_POINT($,#188);
#66=VERTEX_POINT($,#218);
#67=VERTEX_POINT($,#219);
#68=VERTEX_POINT($,#227);
#69=VERTEX_POINT($,#230);
#70=EDGE_CURVE($,#60,#60,#50,.T.);
#71=EDGE_CURVE($,#61,#61,#51,.T.);
#72=EDGE_CURVE($,#62,#62,#52,.T.);
#73=EDGE_CURVE($,#63,#63,#53,.T.);
#74=EDGE_CURVE($,#64,#65,#54,.T.);
#75=EDGE_CURVE($,#65,#64,#55,.T.);
#76=EDGE_CURVE($,#66,#67,#56,.T.);
#77=EDGE_CURVE($,#67,#66,#57,.T.);
#78=EDGE_CURVE($,#67,#65,#13,.T.);
#79=EDGE_CURVE($,#68,#68,#58,.T.);
#80=EDGE_CURVE($,#69,#69,#59,.T.);
#81=ORIENTED_EDGE($,*,*,#70,.F.);
#82=ORIENTED_EDGE($,*,*,#71,.T.);
#83=ORIENTED_EDGE($,*,*,#72,.F.);
#84=ORIENTED_EDGE($,*,*,#70,.T.);
#85=ORIENTED_EDGE($,*,*,#73,.F.);
#86=ORIENTED_EDGE($,*,*,#72,.T.);
#87=ORIENTED_EDGE($,*,*,#74,.F.);
#88=ORIENTED_EDGE($,*,*,#75,.F.);
#89=ORIENTED_EDGE($,*,*,#73,.T.);
#90=ORIENTED_EDGE($,*,*,#76,.F.);
#91=ORIENTED_EDGE($,*,*,#77,.F.);
#92=ORIENTED_EDGE($,*,*,#78,.T.);
#93=ORIENTED_EDGE($,*,*,#75,.T.);
#94=ORIENTED_EDGE($,*,*,#74,.T.);
#95=ORIENTED_EDGE($,*,*,#78,.F.);
#96=ORIENTED_EDGE($,*,*,#76,.T.);
#97=ORIENTED_EDGE($,*,*,#77,.T.);
#98=ORIENTED_EDGE($,*,*,#79,.F.);
#99=ORIENTED_EDGE($,*,*,#80,.F.);
#100=ORIENTED_EDGE($,*,*,#79,.T.);
#101=ORIENTED_EDGE($,*,*,#71,.F.);
#102=ORIENTED_EDGE($,*,*,#80,.T.);
#103=PLANE($,#118);
#104=PLANE($,#130);
#105=PLANE($,#131);
#106=ADVANCED_FACE($,(#26,#20),#103,.T.);
#107=ADVANCED_FACE($,(#27,#21),#17,.T.);
#108=ADVANCED_FACE($,(#28,#22),#15,.T.);
#109=ADVANCED_FACE($,(#29,#23),#18,.T.);
#110=ADVANCED_FACE($,(#30),#14,.F.);
#111=ADVANCED_FACE($,(#31),#104,.T.);
#112=ADVANCED_FACE($,(#32),#105,.T.);
#113=ADVANCED_FACE($,(#33,#24),#19,.F.);
#114=ADVANCED_FACE($,(#34,#25),#16,.F.);
#115=CLOSED_SHELL($,(#106,#107,#108,#109,#110,#111,#112,#113,#114));
#116=MANIFOLD_SOLID_BREP('Solido1',#115);
#117=AXIS2_PLACEMENT_3D('placement',#174,#136,#137);
#118=AXIS2_PLACEMENT_3D($,#175,#138,#139);
#119=AXIS2_PLACEMENT_3D($,#177,#140,#141);
#120=AXIS2_PLACEMENT_3D($,#179,#142,#143);
#121=AXIS2_PLACEMENT_3D($,#180,#144,#145);
#122=AXIS2_PLACEMENT_3D($,#182,#146,#147);
#123=AXIS2_PLACEMENT_3D($,#183,#148,#149);
#124=AXIS2_PLACEMENT_3D($,#185,#150,#151);
#125=AXIS2_PLACEMENT_3D($,#186,#152,#153);
#126=AXIS2_PLACEMENT_3D($,#189,#154,#155);
#127=AXIS2_PLACEMENT_3D($,#190,#156,#157);
#128=AXIS2_PLACEMENT_3D($,#220,#158,#159);
#129=AXIS2_PLACEMENT_3D($,#221,#160,#161);
#130=AXIS2_PLACEMENT_3D($,#225,#162,#163);
#131=AXIS2_PLACEMENT_3D($,#226,#164,#165);
#132=AXIS2_PLACEMENT_3D($,#228,#166,#167);
#133=AXIS2_PLACEMENT_3D($,#229,#168,#169);
#134=AXIS2_PLACEMENT_3D($,#231,#170,#171);
#135=AXIS2_PLACEMENT_3D($,#232,#172,#173);
#136=DIRECTION('axis',(0.,0.,1.));
#137=DIRECTION('refdir',(1.,0.,0.));
#138=DIRECTION('center_axis',(0.,0.,-1.));
#139=DIRECTION('ref_axis',(-1.,0.,0.));
#140=DIRECTION('center_axis',(0.,0.,1.));
#141=DIRECTION('ref_axis',(0.,-1.,0.));
#142=DIRECTION('center_axis',(0.,0.,1.));
#143=DIRECTION('ref_axis',(0.,-1.,0.));
#144=DIRECTION('center_axis',(0.,0.,1.));
#145=DIRECTION('ref_axis',(1.,0.,0.));
#146=DIRECTION('center_axis',(0.,0.,1.));
#147=DIRECTION('ref_axis',(0.,-1.,0.));
#148=DIRECTION('center_axis',(0.,0.,1.));
#149=DIRECTION('ref_axis',(0.,-1.,0.));
#150=DIRECTION('center_axis',(0.,0.,1.));
#151=DIRECTION('ref_axis',(0.,-1.,0.));
#152=DIRECTION('center_axis',(0.,0.,1.));
#153=DIRECTION('ref_axis',(1.,0.,0.));
#154=DIRECTION('center_axis',(0.,0.,1.));
#155=DIRECTION('ref_axis',(0.,-1.,0.));
#156=DIRECTION('center_axis',(0.,0.,1.));
#157=DIRECTION('ref_axis',(0.,-1.,0.));
#158=DIRECTION('center_axis',(0.,0.,1.));
#159=DIRECTION('ref_axis',(0.,-1.,0.));
#160=DIRECTION('center_axis',(0.,0.,1.));
#161=DIRECTION('ref_axis',(0.,-1.,0.));
#162=DIRECTION('center_axis',(0.,0.,1.));
#163=DIRECTION('ref_axis',(1.,0.,0.));
#164=DIRECTION('center_axis',(0.,0.,-1.));
#165=DIRECTION('ref_axis',(-1.,0.,0.));
#166=DIRECTION('center_axis',(0.,0.,1.));
#167=DIRECTION('ref_axis',(0.,-1.,0.));
#168=DIRECTION('center_axis',(0.,0.,1.));
#169=DIRECTION('ref_axis',(1.,0.,0.));
#170=DIRECTION('center_axis',(0.,0.,1.));
#171=DIRECTION('ref_axis',(0.,-1.,0.));
#172=DIRECTION('center_axis',(0.,0.,1.));
#173=DIRECTION('ref_axis',(0.,-1.,0.));
#174=CARTESIAN_POINT('',(0.,0.,0.));
#175=CARTESIAN_POINT('Origin',(0.,-6.875,0.));
#176=CARTESIAN_POINT('',(0.,-7.75,0.));
#177=CARTESIAN_POINT('Origin',(0.,0.,0.));
#178=CARTESIAN_POINT('',(0.,-6.,0.));
#179=CARTESIAN_POINT('Origin',(0.,0.,0.));
#180=CARTESIAN_POINT('Origin',(0.,0.,0.5));
#181=CARTESIAN_POINT('',(0.,-8.25,0.5));
#182=CARTESIAN_POINT('Origin',(0.,0.,0.5));
#183=CARTESIAN_POINT('Origin',(0.,0.,6.86442857356967));
#184=CARTESIAN_POINT('',(0.,-8.25,13.2288571471393));
#185=CARTESIAN_POINT('Origin',(0.,0.,13.2288571471393));
#186=CARTESIAN_POINT('Origin',(0.,0.,13.2288571471393));
#187=CARTESIAN_POINT('',(0.,-7.55986900188506,14.1796364073626));
#188=CARTESIAN_POINT('',(-7.55986900188506,0.,14.1796364073626));
#189=CARTESIAN_POINT('Origin',(0.,0.,14.1796364073626));
#190=CARTESIAN_POINT('Origin',(0.,0.,14.1796364073626));
#191=CARTESIAN_POINT('Ctrl Pts',(-7.55986900188506,0.,14.1796364073626));
#192=CARTESIAN_POINT('Ctrl Pts',(-7.55986900188506,-7.55986900188506,14.1796364073626));
#193=CARTESIAN_POINT('Ctrl Pts',(0.,-7.55986900188506,14.1796364073626));
#194=CARTESIAN_POINT('Ctrl Pts',(7.55986900188506,-7.55986900188506,14.1796364073626));
#195=CARTESIAN_POINT('Ctrl Pts',(7.55986900188506,0.,14.1796364073626));
#196=CARTESIAN_POINT('Ctrl Pts',(7.55986900188506,7.55986900188506,14.1796364073626));
#197=CARTESIAN_POINT('Ctrl Pts',(0.,7.55986900188506,14.1796364073626));
#198=CARTESIAN_POINT('Ctrl Pts',(-7.55986900188506,7.55986900188506,14.1796364073626));
#199=CARTESIAN_POINT('Ctrl Pts',(-7.55986900188506,0.,14.1796364073626));
#200=CARTESIAN_POINT('Ctrl Pts',(-5.33650454253112,0.,14.904254365147));
#201=CARTESIAN_POINT('Ctrl Pts',(-5.33650454253112,-5.33650454253112,14.904254365147));
#202=CARTESIAN_POINT('Ctrl Pts',(0.,-5.33650454253112,14.904254365147));
#203=CARTESIAN_POINT('Ctrl Pts',(5.33650454253112,-5.33650454253112,14.904254365147));
#204=CARTESIAN_POINT('Ctrl Pts',(5.33650454253112,0.,14.904254365147));
#205=CARTESIAN_POINT('Ctrl Pts',(5.33650454253112,5.33650454253112,14.904254365147));
#206=CARTESIAN_POINT('Ctrl Pts',(0.,5.33650454253112,14.904254365147));
#207=CARTESIAN_POINT('Ctrl Pts',(-5.33650454253112,5.33650454253112,14.904254365147));
#208=CARTESIAN_POINT('Ctrl Pts',(-5.33650454253112,0.,14.904254365147));
#209=CARTESIAN_POINT('Ctrl Pts',(-3.,0.,15.));
#210=CARTESIAN_POINT('Ctrl Pts',(-3.,-3.,15.));
#211=CARTESIAN_POINT('Ctrl Pts',(0.,-3.,15.));
#212=CARTESIAN_POINT('Ctrl Pts',(3.,-3.,15.));
#213=CARTESIAN_POINT('Ctrl Pts',(3.,0.,15.));
#214=CARTESIAN_POINT('Ctrl Pts',(3.,3.,15.));
#215=CARTESIAN_POINT('Ctrl Pts',(0.,3.,15.));
#216=CARTESIAN_POINT('Ctrl Pts',(-3.,3.,15.));
#217=CARTESIAN_POINT('Ctrl Pts',(-3.,0.,15.));
#218=CARTESIAN_POINT('',(0.,-3.,15.));
#219=CARTESIAN_POINT('',(-3.,0.,15.));
#220=CARTESIAN_POINT('Origin',(0.,0.,15.));
#221=CARTESIAN_POINT('Origin',(0.,0.,15.));
#222=CARTESIAN_POINT('Ctrl Pts',(-3.,0.,15.));
#223=CARTESIAN_POINT('Ctrl Pts',(-5.33650454253112,0.,14.904254365147));
#224=CARTESIAN_POINT('Ctrl Pts',(-7.55986900188506,0.,14.1796364073626));
#225=CARTESIAN_POINT('Origin',(0.,-1.5,15.));
#226=CARTESIAN_POINT('Origin',(0.,-2.75,12.));
#227=CARTESIAN_POINT('',(0.,-5.5,12.));
#228=CARTESIAN_POINT('Origin',(0.,0.,12.));
#229=CARTESIAN_POINT('Origin',(0.,0.,11.5));
#230=CARTESIAN_POINT('',(0.,-6.,11.5));
#231=CARTESIAN_POINT('Origin',(0.,0.,11.5));
#232=CARTESIAN_POINT('Origin',(0.,0.,5.75));
#233=UNCERTAINTY_MEASURE_WITH_UNIT(LENGTH_MEASURE(0.01),#235,
'DISTANCE_ACCURACY_VALUE',
'Maximum model space distance between geometric entities at asserted c
onnectivities');
#234=(
GEOMETRIC_REPRESENTATION_CONTEXT(3)
GLOBAL_UNCERTAINTY_ASSIGNED_CONTEXT((#233))
GLOBAL_UNIT_ASSIGNED_CONTEXT((#235,#238,#236))
REPRESENTATION_CONTEXT('','3D')
);
#235=(
LENGTH_UNIT()
NAMED_UNIT(*)
SI_UNIT(.MILLI.,.METRE.)
);
#236=(
NAMED_UNIT(*)
SI_UNIT($,.STERADIAN.)
SOLID_ANGLE_UNIT()
);
#237=DIMENSIONAL_EXPONENTS(0.,0.,0.,0.,0.,0.,0.);
#238=(
CONVERSION_BASED_UNIT('degree',#240)
NAMED_UNIT(#237)
PLANE_ANGLE_UNIT()
);
#239=(
NAMED_UNIT(*)
PLANE_ANGLE_UNIT()
SI_UNIT($,.RADIAN.)
);
#240=PLANE_ANGLE_MEASURE_WITH_UNIT(PLANE_ANGLE_MEASURE(0.01745329252),#239);
#241=SHAPE_DEFINITION_REPRESENTATION(#242,#243);
#242=PRODUCT_DEFINITION_SHAPE('',$,#245);
#243=SHAPE_REPRESENTATION('',(#117),#234);
#244=PRODUCT_DEFINITION_CONTEXT('3D Mechanical Parts',#248,'design');
#245=PRODUCT_DEFINITION('CIV012','CIV012',#246,#244);
#246=PRODUCT_DEFINITION_FORMATION('',$,#250);
#247=APPLICATION_PROTOCOL_DEFINITION('international standard',
'automotive_design',2009,#248);
#248=APPLICATION_CONTEXT(
'Core Data for Automotive Mechanical Design Process');
#249=PRODUCT_CONTEXT('3D Mechanical Parts',#248,'mechanical');
#250=PRODUCT('CIV012','CIV012',$,(#249));
#251=PRESENTATION_STYLE_ASSIGNMENT((#252));
#252=SURFACE_STYLE_USAGE(.BOTH.,#253);
#253=SURFACE_SIDE_STYLE($,(#254));
#254=SURFACE_STYLE_FILL_AREA(#255);
#255=FILL_AREA_STYLE($,(#256));
#256=FILL_AREA_STYLE_COLOUR($,#257);
#257=COLOUR_RGB('',0.509803921568627,0.509803921568627,0.588235294117647);
ENDSEC;
END-ISO-10303-21;
