ISO-10303-21;
HEADER;
/* Generated by software containing ST-Developer
 * from STEP Tools, Inc. (www.steptools.com) 
 */

FILE_DESCRIPTION(
/* description */ (''),
/* implementation_level */ '2;1');

FILE_NAME(
/* name */ 
'Q:\\Ric010\\FF7\\FIPlastiCAD\\FIP\\Lavoro\\PVC Fittings\\PVC Fittings
 STEP\\CIV\\CIV125.ipt.stp',
/* time_stamp */ '2013-10-01T14:36:26+02:00',
/* author */ ('bfaro'),
/* organization */ (''),
/* preprocessor_version */ 'ST-DEVELOPER v15.2',
/* originating_system */ 'Autodesk Inventor 2014',
/* authorisation */ '');

FILE_SCHEMA (('AUTOMOTIVE_DESIGN { 1 0 10303 214 3 1 1 }'));
ENDSEC;

DATA;
#10=SHAPE_REPRESENTATION_RELATIONSHIP('SRR','None',#175,#11);
#11=ADVANCED_BREP_SHAPE_REPRESENTATION($,(#93),#166);
#12=STYLED_ITEM($,(#183),#93);
#13=PLANE($,#108);
#14=PLANE($,#109);
#15=CONICAL_SURFACE($,#103,66.5100989565286,85.);
#16=CYLINDRICAL_SURFACE($,#99,73.6);
#17=CYLINDRICAL_SURFACE($,#105,62.5);
#18=FACE_BOUND($,#36,.T.);
#19=FACE_BOUND($,#38,.T.);
#20=FACE_BOUND($,#40,.T.);
#21=FACE_BOUND($,#42,.T.);
#22=FACE_BOUND($,#44,.T.);
#23=FACE_BOUND($,#46,.T.);
#24=TOROIDAL_SURFACE($,#97,55.6,18.);
#25=TOROIDAL_SURFACE($,#101,69.6,4.);
#26=FACE_OUTER_BOUND($,#34,.T.);
#27=FACE_OUTER_BOUND($,#35,.T.);
#28=FACE_OUTER_BOUND($,#37,.T.);
#29=FACE_OUTER_BOUND($,#39,.T.);
#30=FACE_OUTER_BOUND($,#41,.T.);
#31=FACE_OUTER_BOUND($,#43,.T.);
#32=FACE_OUTER_BOUND($,#45,.T.);
#33=FACE_OUTER_BOUND($,#47,.T.);
#34=EDGE_LOOP($,(#69));
#35=EDGE_LOOP($,(#70));
#36=EDGE_LOOP($,(#71));
#37=EDGE_LOOP($,(#72));
#38=EDGE_LOOP($,(#73));
#39=EDGE_LOOP($,(#74));
#40=EDGE_LOOP($,(#75));
#41=EDGE_LOOP($,(#76));
#42=EDGE_LOOP($,(#77));
#43=EDGE_LOOP($,(#78));
#44=EDGE_LOOP($,(#79));
#45=EDGE_LOOP($,(#80));
#46=EDGE_LOOP($,(#81));
#47=EDGE_LOOP($,(#82));
#48=CIRCLE($,#96,59.4053231939167);
#49=CIRCLE($,#98,73.6);
#50=CIRCLE($,#100,73.6);
#51=CIRCLE($,#102,69.9486229709906);
#52=CIRCLE($,#104,63.0715749420666);
#53=CIRCLE($,#106,62.5);
#54=CIRCLE($,#107,62.5);
#55=VERTEX_POINT($,#144);
#56=VERTEX_POINT($,#147);
#57=VERTEX_POINT($,#150);
#58=VERTEX_POINT($,#153);
#59=VERTEX_POINT($,#156);
#60=VERTEX_POINT($,#159);
#61=VERTEX_POINT($,#161);
#62=EDGE_CURVE($,#55,#55,#48,.T.);
#63=EDGE_CURVE($,#56,#56,#49,.T.);
#64=EDGE_CURVE($,#57,#57,#50,.T.);
#65=EDGE_CURVE($,#58,#58,#51,.T.);
#66=EDGE_CURVE($,#59,#59,#52,.T.);
#67=EDGE_CURVE($,#60,#60,#53,.T.);
#68=EDGE_CURVE($,#61,#61,#54,.T.);
#69=ORIENTED_EDGE($,*,*,#62,.F.);
#70=ORIENTED_EDGE($,*,*,#62,.T.);
#71=ORIENTED_EDGE($,*,*,#63,.F.);
#72=ORIENTED_EDGE($,*,*,#63,.T.);
#73=ORIENTED_EDGE($,*,*,#64,.F.);
#74=ORIENTED_EDGE($,*,*,#64,.T.);
#75=ORIENTED_EDGE($,*,*,#65,.F.);
#76=ORIENTED_EDGE($,*,*,#66,.F.);
#77=ORIENTED_EDGE($,*,*,#65,.T.);
#78=ORIENTED_EDGE($,*,*,#67,.T.);
#79=ORIENTED_EDGE($,*,*,#68,.F.);
#80=ORIENTED_EDGE($,*,*,#66,.T.);
#81=ORIENTED_EDGE($,*,*,#67,.F.);
#82=ORIENTED_EDGE($,*,*,#68,.T.);
#83=SPHERICAL_SURFACE($,#95,281.);
#84=ADVANCED_FACE($,(#26),#83,.T.);
#85=ADVANCED_FACE($,(#27,#18),#24,.T.);
#86=ADVANCED_FACE($,(#28,#19),#16,.T.);
#87=ADVANCED_FACE($,(#29,#20),#25,.T.);
#88=ADVANCED_FACE($,(#30,#21),#15,.T.);
#89=ADVANCED_FACE($,(#31,#22),#17,.F.);
#90=ADVANCED_FACE($,(#32,#23),#13,.T.);
#91=ADVANCED_FACE($,(#33),#14,.T.);
#92=CLOSED_SHELL($,(#84,#85,#86,#87,#88,#89,#90,#91));
#93=MANIFOLD_SOLID_BREP('Solido1',#92);
#94=AXIS2_PLACEMENT_3D('placement',#142,#110,#111);
#95=AXIS2_PLACEMENT_3D($,#143,#112,#113);
#96=AXIS2_PLACEMENT_3D($,#145,#114,#115);
#97=AXIS2_PLACEMENT_3D($,#146,#116,#117);
#98=AXIS2_PLACEMENT_3D($,#148,#118,#119);
#99=AXIS2_PLACEMENT_3D($,#149,#120,#121);
#100=AXIS2_PLACEMENT_3D($,#151,#122,#123);
#101=AXIS2_PLACEMENT_3D($,#152,#124,#125);
#102=AXIS2_PLACEMENT_3D($,#154,#126,#127);
#103=AXIS2_PLACEMENT_3D($,#155,#128,#129);
#104=AXIS2_PLACEMENT_3D($,#157,#130,#131);
#105=AXIS2_PLACEMENT_3D($,#158,#132,#133);
#106=AXIS2_PLACEMENT_3D($,#160,#134,#135);
#107=AXIS2_PLACEMENT_3D($,#162,#136,#137);
#108=AXIS2_PLACEMENT_3D($,#163,#138,#139);
#109=AXIS2_PLACEMENT_3D($,#164,#140,#141);
#110=DIRECTION('axis',(0.,0.,1.));
#111=DIRECTION('refdir',(1.,0.,0.));
#112=DIRECTION('center_axis',(6.12323399573677E-017,0.,1.));
#113=DIRECTION('ref_axis',(1.,0.,0.));
#114=DIRECTION('center_axis',(0.,0.,-1.));
#115=DIRECTION('ref_axis',(-1.,0.,0.));
#116=DIRECTION('center_axis',(0.,0.,-1.));
#117=DIRECTION('ref_axis',(-1.,0.,0.));
#118=DIRECTION('center_axis',(0.,0.,-1.));
#119=DIRECTION('ref_axis',(-1.,0.,0.));
#120=DIRECTION('center_axis',(0.,0.,-1.));
#121=DIRECTION('ref_axis',(-1.,0.,0.));
#122=DIRECTION('center_axis',(0.,0.,-1.));
#123=DIRECTION('ref_axis',(-1.,0.,0.));
#124=DIRECTION('center_axis',(0.,0.,-1.));
#125=DIRECTION('ref_axis',(-1.,0.,0.));
#126=DIRECTION('center_axis',(0.,0.,-1.));
#127=DIRECTION('ref_axis',(-1.,0.,0.));
#128=DIRECTION('center_axis',(0.,0.,1.));
#129=DIRECTION('ref_axis',(-1.,0.,0.));
#130=DIRECTION('center_axis',(0.,0.,-1.));
#131=DIRECTION('ref_axis',(-1.,0.,0.));
#132=DIRECTION('center_axis',(0.,0.,-1.));
#133=DIRECTION('ref_axis',(-1.,0.,0.));
#134=DIRECTION('center_axis',(0.,0.,-1.));
#135=DIRECTION('ref_axis',(-1.,0.,0.));
#136=DIRECTION('center_axis',(0.,0.,-1.));
#137=DIRECTION('ref_axis',(-1.,0.,0.));
#138=DIRECTION('center_axis',(0.,0.,-1.));
#139=DIRECTION('ref_axis',(-1.,0.,0.));
#140=DIRECTION('center_axis',(0.,0.,-1.));
#141=DIRECTION('ref_axis',(-1.,0.,0.));
#142=CARTESIAN_POINT('',(0.,0.,0.));
#143=CARTESIAN_POINT('Origin',(0.,-4.052314E-014,-182.5));
#144=CARTESIAN_POINT('',(-59.4053231939167,2.046116E-014,92.1488805297162));
#145=CARTESIAN_POINT('Origin',(0.,2.046116E-014,92.1488805297162));
#146=CARTESIAN_POINT('Origin',(0.,1.655469E-014,74.5557138053928));
#147=CARTESIAN_POINT('',(-9.013103E-015,-73.6,74.5557138053928));
#148=CARTESIAN_POINT('Origin',(0.,1.655469E-014,74.5557138053928));
#149=CARTESIAN_POINT('Origin',(0.,8.786544E-015,39.571078169407));
#150=CARTESIAN_POINT('',(-9.013103E-015,-73.6,4.58644253342114));
#151=CARTESIAN_POINT('Origin',(0.,1.018395E-015,4.58644253342112));
#152=CARTESIAN_POINT('Origin',(0.,1.018395E-015,4.58644253342112));
#153=CARTESIAN_POINT('',(-8.565953E-015,-69.9486229709906,0.601663741054169));
#154=CARTESIAN_POINT('Origin',(0.,1.335962E-016,0.601663741054153));
#155=CARTESIAN_POINT('Origin',(0.,6.679809E-017,0.300831870527077));
#156=CARTESIAN_POINT('',(63.0715749420666,-7.723785E-015,0.));
#157=CARTESIAN_POINT('Origin',(0.,0.,0.));
#158=CARTESIAN_POINT('Origin',(8.88178419700125E-015,7.71605E-015,34.7499999999999));
#159=CARTESIAN_POINT('',(62.5,-7.65379E-015,0.));
#160=CARTESIAN_POINT('Origin',(0.,0.,0.));
#161=CARTESIAN_POINT('',(62.5,7.77831E-015,69.4999999999998));
#162=CARTESIAN_POINT('Origin',(0.,1.54321E-014,69.4999999999998));
#163=CARTESIAN_POINT('Origin',(-62.7857874710333,0.,0.));
#164=CARTESIAN_POINT('Origin',(-31.25,1.54321E-014,69.4999999999999));
#165=UNCERTAINTY_MEASURE_WITH_UNIT(LENGTH_MEASURE(0.01),#167,
'DISTANCE_ACCURACY_VALUE',
'Maximum model space distance between geometric entities at asserted c
onnectivities');
#166=(
GEOMETRIC_REPRESENTATION_CONTEXT(3)
GLOBAL_UNCERTAINTY_ASSIGNED_CONTEXT((#165))
GLOBAL_UNIT_ASSIGNED_CONTEXT((#167,#170,#168))
REPRESENTATION_CONTEXT('','3D')
);
#167=(
LENGTH_UNIT()
NAMED_UNIT(*)
SI_UNIT(.MILLI.,.METRE.)
);
#168=(
NAMED_UNIT(*)
SI_UNIT($,.STERADIAN.)
SOLID_ANGLE_UNIT()
);
#169=DIMENSIONAL_EXPONENTS(0.,0.,0.,0.,0.,0.,0.);
#170=(
CONVERSION_BASED_UNIT('degree',#172)
NAMED_UNIT(#169)
PLANE_ANGLE_UNIT()
);
#171=(
NAMED_UNIT(*)
PLANE_ANGLE_UNIT()
SI_UNIT($,.RADIAN.)
);
#172=PLANE_ANGLE_MEASURE_WITH_UNIT(PLANE_ANGLE_MEASURE(0.01745329252),#171);
#173=SHAPE_DEFINITION_REPRESENTATION(#174,#175);
#174=PRODUCT_DEFINITION_SHAPE('',$,#177);
#175=SHAPE_REPRESENTATION('',(#94),#166);
#176=PRODUCT_DEFINITION_CONTEXT('3D Mechanical Parts',#180,'design');
#177=PRODUCT_DEFINITION('CIV125','CIV125',#178,#176);
#178=PRODUCT_DEFINITION_FORMATION('',$,#182);
#179=APPLICATION_PROTOCOL_DEFINITION('international standard',
'automotive_design',2009,#180);
#180=APPLICATION_CONTEXT(
'Core Data for Automotive Mechanical Design Process');
#181=PRODUCT_CONTEXT('3D Mechanical Parts',#180,'mechanical');
#182=PRODUCT('CIV125','CIV125',$,(#181));
#183=PRESENTATION_STYLE_ASSIGNMENT((#184));
#184=SURFACE_STYLE_USAGE(.BOTH.,#185);
#185=SURFACE_SIDE_STYLE($,(#186));
#186=SURFACE_STYLE_FILL_AREA(#187);
#187=FILL_AREA_STYLE($,(#188));
#188=FILL_AREA_STYLE_COLOUR($,#189);
#189=COLOUR_RGB('',0.509803921568627,0.509803921568627,0.588235294117647);
ENDSEC;
END-ISO-10303-21;
