ISO-10303-21;
HEADER;
FILE_DESCRIPTION( ( 'STEP AP214' ), '1' );
FILE_NAME( 'p:/temp/worker_3/temp/exporttempdir_3260_596_j5i8P/format_0/22056005007(architecture400).stp', '2021-11-18T07:28:01', ( 'License CC BY-ND 4.0' ), ( 'CADENAS' ), ' ', 'PARTsolutions', ' ' );
FILE_SCHEMA( ( 'AUTOMOTIVE_DESIGN { 1 0 10303 214 1 1 1 1 }' ) );
ENDSEC;
DATA;
#1 = MECHANICAL_DESIGN_GEOMETRIC_PRESENTATION_REPRESENTATION( ' ', ( #10, #11, #12, #13, #14, #15, #16, #17, #18, #19, #20, #21, #22 ), #6 );
#2 = PRODUCT_DEFINITION_CONTEXT( '', #23, 'design' );
#3 = APPLICATION_PROTOCOL_DEFINITION( 'international standard', 'automotive_design', 2001, #23 );
#4 = PRODUCT_CATEGORY_RELATIONSHIP( 'NONE', 'NONE', #24, #25 );
#5 = SHAPE_DEFINITION_REPRESENTATION( #26, #27 );
#6 =  ( GEOMETRIC_REPRESENTATION_CONTEXT( 3 )GLOBAL_UNCERTAINTY_ASSIGNED_CONTEXT( ( #30 ) )GLOBAL_UNIT_ASSIGNED_CONTEXT( ( #32, #33, #34 ) )REPRESENTATION_CONTEXT( 'NONE', 'WORKSPACE' ) );
#10 = STYLED_ITEM( '', ( #36 ), #37 );
#11 = STYLED_ITEM( '', ( #38 ), #39 );
#12 = STYLED_ITEM( '', ( #40 ), #41 );
#13 = STYLED_ITEM( '', ( #42 ), #43 );
#14 = STYLED_ITEM( '', ( #44 ), #45 );
#15 = STYLED_ITEM( '', ( #46 ), #47 );
#16 = STYLED_ITEM( '', ( #48 ), #49 );
#17 = STYLED_ITEM( '', ( #50 ), #51 );
#18 = STYLED_ITEM( '', ( #52 ), #53 );
#19 = STYLED_ITEM( '', ( #54 ), #55 );
#20 = STYLED_ITEM( '', ( #56 ), #57 );
#21 = STYLED_ITEM( '', ( #58 ), #59 );
#22 = STYLED_ITEM( '', ( #60 ), #61 );
#23 = APPLICATION_CONTEXT( 'core data for automotive mechanical design processes' );
#24 = PRODUCT_CATEGORY( 'part', 'NONE' );
#25 = PRODUCT_RELATED_PRODUCT_CATEGORY( 'detail', ' ', ( #62 ) );
#26 = PRODUCT_DEFINITION_SHAPE( 'NONE', 'NONE', #63 );
#27 = ADVANCED_BREP_SHAPE_REPRESENTATION( '_22056005007(architecture400)', ( #64, #65 ), #6 );
#30 = UNCERTAINTY_MEASURE_WITH_UNIT( LENGTH_MEASURE( 0.00100000000000000 ), #32, '', '' );
#32 =  ( CONVERSION_BASED_UNIT( 'MILLIMETRE', #68 )LENGTH_UNIT(  )NAMED_UNIT( #71 ) );
#33 =  ( NAMED_UNIT( #73 )PLANE_ANGLE_UNIT(  )SI_UNIT( $, .RADIAN. ) );
#34 =  ( NAMED_UNIT( #73 )SI_UNIT( $, .STERADIAN. )SOLID_ANGLE_UNIT(  ) );
#36 = PRESENTATION_STYLE_ASSIGNMENT( ( #79 ) );
#37 = ADVANCED_FACE( '', ( #80, #81 ), #82, .F. );
#38 = PRESENTATION_STYLE_ASSIGNMENT( ( #83 ) );
#39 = ADVANCED_FACE( '', ( #84, #85, #86 ), #87, .T. );
#40 = PRESENTATION_STYLE_ASSIGNMENT( ( #88 ) );
#41 = ADVANCED_FACE( '', ( #89, #90 ), #91, .F. );
#42 = PRESENTATION_STYLE_ASSIGNMENT( ( #92 ) );
#43 = ADVANCED_FACE( '', ( #93, #94, #95 ), #96, .F. );
#44 = PRESENTATION_STYLE_ASSIGNMENT( ( #97 ) );
#45 = ADVANCED_FACE( '', ( #98, #99 ), #100, .F. );
#46 = PRESENTATION_STYLE_ASSIGNMENT( ( #101 ) );
#47 = ADVANCED_FACE( '', ( #102, #103 ), #104, .T. );
#48 = PRESENTATION_STYLE_ASSIGNMENT( ( #105 ) );
#49 = ADVANCED_FACE( '', ( #106, #107 ), #108, .F. );
#50 = PRESENTATION_STYLE_ASSIGNMENT( ( #109 ) );
#51 = ADVANCED_FACE( '', ( #110, #111 ), #112, .T. );
#52 = PRESENTATION_STYLE_ASSIGNMENT( ( #113 ) );
#53 = ADVANCED_FACE( '', ( #114, #115 ), #116, .T. );
#54 = PRESENTATION_STYLE_ASSIGNMENT( ( #117 ) );
#55 = ADVANCED_FACE( '', ( #118, #119 ), #120, .T. );
#56 = PRESENTATION_STYLE_ASSIGNMENT( ( #121 ) );
#57 = ADVANCED_FACE( '', ( #122, #123 ), #124, .F. );
#58 = PRESENTATION_STYLE_ASSIGNMENT( ( #125 ) );
#59 = ADVANCED_FACE( '', ( #126, #127 ), #128, .T. );
#60 = PRESENTATION_STYLE_ASSIGNMENT( ( #129 ) );
#61 = ADVANCED_FACE( '', ( #130, #131 ), #132, .T. );
#62 = PRODUCT( '_22056005007(architecture400)', '_22056005007(architecture400)', 'PART-_22056005007(architecture400)-DESC', ( #133 ) );
#63 = PRODUCT_DEFINITION( 'NONE', 'NONE', #134, #2 );
#64 = MANIFOLD_SOLID_BREP( '_22056005007(architecture400)', #135 );
#65 = AXIS2_PLACEMENT_3D( '', #136, #137, #138 );
#68 = LENGTH_MEASURE_WITH_UNIT( LENGTH_MEASURE( 1.00000000000000 ), #139 );
#71 = DIMENSIONAL_EXPONENTS( 1.00000000000000, 0.000000000000000, 0.000000000000000, 0.000000000000000, 0.000000000000000, 0.000000000000000, 0.000000000000000 );
#73 = DIMENSIONAL_EXPONENTS( 0.000000000000000, 0.000000000000000, 0.000000000000000, 0.000000000000000, 0.000000000000000, 0.000000000000000, 0.000000000000000 );
#79 = SURFACE_STYLE_USAGE( .BOTH., #140 );
#80 = FACE_OUTER_BOUND( '', #141, .T. );
#81 = FACE_OUTER_BOUND( '', #142, .T. );
#82 = CYLINDRICAL_SURFACE( '', #143, 25.0000000000000 );
#83 = SURFACE_STYLE_USAGE( .BOTH., #144 );
#84 = FACE_OUTER_BOUND( '', #145, .T. );
#85 = FACE_OUTER_BOUND( '', #146, .T. );
#86 = FACE_BOUND( '', #147, .T. );
#87 = CYLINDRICAL_SURFACE( '', #148, 32.5000000000000 );
#88 = SURFACE_STYLE_USAGE( .BOTH., #149 );
#89 = FACE_OUTER_BOUND( '', #150, .T. );
#90 = FACE_OUTER_BOUND( '', #151, .T. );
#91 = CYLINDRICAL_SURFACE( '', #152, 22.5000000000000 );
#92 = SURFACE_STYLE_USAGE( .BOTH., #153 );
#93 = FACE_OUTER_BOUND( '', #154, .T. );
#94 = FACE_BOUND( '', #155, .T. );
#95 = FACE_OUTER_BOUND( '', #156, .T. );
#96 = CYLINDRICAL_SURFACE( '', #157, 22.5000000000000 );
#97 = SURFACE_STYLE_USAGE( .BOTH., #158 );
#98 = FACE_BOUND( '', #159, .T. );
#99 = FACE_OUTER_BOUND( '', #160, .T. );
#100 = PLANE( '', #161 );
#101 = SURFACE_STYLE_USAGE( .BOTH., #162 );
#102 = FACE_BOUND( '', #163, .T. );
#103 = FACE_OUTER_BOUND( '', #164, .T. );
#104 = PLANE( '', #165 );
#105 = SURFACE_STYLE_USAGE( .BOTH., #166 );
#106 = FACE_OUTER_BOUND( '', #167, .T. );
#107 = FACE_OUTER_BOUND( '', #168, .T. );
#108 = CYLINDRICAL_SURFACE( '', #169, 25.0000000000000 );
#109 = SURFACE_STYLE_USAGE( .BOTH., #170 );
#110 = FACE_OUTER_BOUND( '', #171, .T. );
#111 = FACE_OUTER_BOUND( '', #172, .T. );
#112 = CYLINDRICAL_SURFACE( '', #173, 32.5000000000000 );
#113 = SURFACE_STYLE_USAGE( .BOTH., #174 );
#114 = FACE_BOUND( '', #175, .T. );
#115 = FACE_OUTER_BOUND( '', #176, .T. );
#116 = PLANE( '', #177 );
#117 = SURFACE_STYLE_USAGE( .BOTH., #178 );
#118 = FACE_OUTER_BOUND( '', #179, .T. );
#119 = FACE_BOUND( '', #180, .T. );
#120 = PLANE( '', #181 );
#121 = SURFACE_STYLE_USAGE( .BOTH., #182 );
#122 = FACE_OUTER_BOUND( '', #183, .T. );
#123 = FACE_OUTER_BOUND( '', #184, .T. );
#124 = CYLINDRICAL_SURFACE( '', #185, 25.0000000000000 );
#125 = SURFACE_STYLE_USAGE( .BOTH., #186 );
#126 = FACE_BOUND( '', #187, .T. );
#127 = FACE_OUTER_BOUND( '', #188, .T. );
#128 = PLANE( '', #189 );
#129 = SURFACE_STYLE_USAGE( .BOTH., #190 );
#130 = FACE_BOUND( '', #191, .T. );
#131 = FACE_OUTER_BOUND( '', #192, .T. );
#132 = PLANE( '', #193 );
#133 = PRODUCT_CONTEXT( '', #23, 'mechanical' );
#134 = PRODUCT_DEFINITION_FORMATION_WITH_SPECIFIED_SOURCE( ' ', 'NONE', #62, .NOT_KNOWN. );
#135 = CLOSED_SHELL( '', ( #43, #39, #53, #45, #51, #47, #49, #61, #55, #57, #37, #59, #41 ) );
#136 = CARTESIAN_POINT( '', ( 0.000000000000000, 0.000000000000000, 0.000000000000000 ) );
#137 = DIRECTION( '', ( 0.000000000000000, 0.000000000000000, 1.00000000000000 ) );
#138 = DIRECTION( '', ( 1.00000000000000, 0.000000000000000, 0.000000000000000 ) );
#139 =  ( LENGTH_UNIT(  )NAMED_UNIT( #71 )SI_UNIT( .MILLI., .METRE. ) );
#140 = SURFACE_SIDE_STYLE( '', ( #195 ) );
#141 = EDGE_LOOP( '', ( #196 ) );
#142 = EDGE_LOOP( '', ( #197 ) );
#143 = AXIS2_PLACEMENT_3D( '', #198, #199, #200 );
#144 = SURFACE_SIDE_STYLE( '', ( #201 ) );
#145 = EDGE_LOOP( '', ( #202 ) );
#146 = EDGE_LOOP( '', ( #203 ) );
#147 = EDGE_LOOP( '', ( #204, #205 ) );
#148 = AXIS2_PLACEMENT_3D( '', #206, #207, #208 );
#149 = SURFACE_SIDE_STYLE( '', ( #209 ) );
#150 = EDGE_LOOP( '', ( #210, #211 ) );
#151 = EDGE_LOOP( '', ( #212 ) );
#152 = AXIS2_PLACEMENT_3D( '', #213, #214, #215 );
#153 = SURFACE_SIDE_STYLE( '', ( #216 ) );
#154 = EDGE_LOOP( '', ( #217 ) );
#155 = EDGE_LOOP( '', ( #218, #219 ) );
#156 = EDGE_LOOP( '', ( #220 ) );
#157 = AXIS2_PLACEMENT_3D( '', #221, #222, #223 );
#158 = SURFACE_SIDE_STYLE( '', ( #224 ) );
#159 = EDGE_LOOP( '', ( #225 ) );
#160 = EDGE_LOOP( '', ( #226 ) );
#161 = AXIS2_PLACEMENT_3D( '', #227, #228, #229 );
#162 = SURFACE_SIDE_STYLE( '', ( #230 ) );
#163 = EDGE_LOOP( '', ( #231 ) );
#164 = EDGE_LOOP( '', ( #232 ) );
#165 = AXIS2_PLACEMENT_3D( '', #233, #234, #235 );
#166 = SURFACE_SIDE_STYLE( '', ( #236 ) );
#167 = EDGE_LOOP( '', ( #237 ) );
#168 = EDGE_LOOP( '', ( #238 ) );
#169 = AXIS2_PLACEMENT_3D( '', #239, #240, #241 );
#170 = SURFACE_SIDE_STYLE( '', ( #242 ) );
#171 = EDGE_LOOP( '', ( #243 ) );
#172 = EDGE_LOOP( '', ( #244, #245 ) );
#173 = AXIS2_PLACEMENT_3D( '', #246, #247, #248 );
#174 = SURFACE_SIDE_STYLE( '', ( #249 ) );
#175 = EDGE_LOOP( '', ( #250 ) );
#176 = EDGE_LOOP( '', ( #251 ) );
#177 = AXIS2_PLACEMENT_3D( '', #252, #253, #254 );
#178 = SURFACE_SIDE_STYLE( '', ( #255 ) );
#179 = EDGE_LOOP( '', ( #256 ) );
#180 = EDGE_LOOP( '', ( #257 ) );
#181 = AXIS2_PLACEMENT_3D( '', #258, #259, #260 );
#182 = SURFACE_SIDE_STYLE( '', ( #261 ) );
#183 = EDGE_LOOP( '', ( #262 ) );
#184 = EDGE_LOOP( '', ( #263 ) );
#185 = AXIS2_PLACEMENT_3D( '', #264, #265, #266 );
#186 = SURFACE_SIDE_STYLE( '', ( #267 ) );
#187 = EDGE_LOOP( '', ( #268 ) );
#188 = EDGE_LOOP( '', ( #269 ) );
#189 = AXIS2_PLACEMENT_3D( '', #270, #271, #272 );
#190 = SURFACE_SIDE_STYLE( '', ( #273 ) );
#191 = EDGE_LOOP( '', ( #274 ) );
#192 = EDGE_LOOP( '', ( #275 ) );
#193 = AXIS2_PLACEMENT_3D( '', #276, #277, #278 );
#195 = SURFACE_STYLE_FILL_AREA( #279 );
#196 = ORIENTED_EDGE( '', *, *, #280, .T. );
#197 = ORIENTED_EDGE( '', *, *, #281, .F. );
#198 = CARTESIAN_POINT( '', ( -29.2500000000000, 0.000000000000000, 0.000000000000000 ) );
#199 = DIRECTION( '', ( 0.000000000000000, -0.000000000000000, 1.00000000000000 ) );
#200 = DIRECTION( '', ( -1.00000000000000, 0.000000000000000, 0.000000000000000 ) );
#201 = SURFACE_STYLE_FILL_AREA( #282 );
#202 = ORIENTED_EDGE( '', *, *, #283, .T. );
#203 = ORIENTED_EDGE( '', *, *, #284, .F. );
#204 = ORIENTED_EDGE( '', *, *, #285, .F. );
#205 = ORIENTED_EDGE( '', *, *, #286, .F. );
#206 = CARTESIAN_POINT( '', ( 24.5000000000000, 0.000000000000000, 0.000000000000000 ) );
#207 = DIRECTION( '', ( 1.00000000000000, -0.000000000000000, -0.000000000000000 ) );
#208 = DIRECTION( '', ( 0.000000000000000, 0.000000000000000, 1.00000000000000 ) );
#209 = SURFACE_STYLE_FILL_AREA( #287 );
#210 = ORIENTED_EDGE( '', *, *, #288, .F. );
#211 = ORIENTED_EDGE( '', *, *, #289, .F. );
#212 = ORIENTED_EDGE( '', *, *, #290, .F. );
#213 = CARTESIAN_POINT( '', ( -29.2500000000000, 0.000000000000000, 0.000000000000000 ) );
#214 = DIRECTION( '', ( 0.000000000000000, -0.000000000000000, 1.00000000000000 ) );
#215 = DIRECTION( '', ( -1.00000000000000, 0.000000000000000, 0.000000000000000 ) );
#216 = SURFACE_STYLE_FILL_AREA( #291 );
#217 = ORIENTED_EDGE( '', *, *, #292, .T. );
#218 = ORIENTED_EDGE( '', *, *, #288, .T. );
#219 = ORIENTED_EDGE( '', *, *, #289, .T. );
#220 = ORIENTED_EDGE( '', *, *, #293, .F. );
#221 = CARTESIAN_POINT( '', ( 24.5000000000000, 0.000000000000000, 0.000000000000000 ) );
#222 = DIRECTION( '', ( -1.00000000000000, -0.000000000000000, 0.000000000000000 ) );
#223 = DIRECTION( '', ( -0.000000000000000, 0.000000000000000, -1.00000000000000 ) );
#224 = SURFACE_STYLE_FILL_AREA( #294 );
#225 = ORIENTED_EDGE( '', *, *, #295, .T. );
#226 = ORIENTED_EDGE( '', *, *, #283, .F. );
#227 = CARTESIAN_POINT( '', ( -83.0000000000000, 0.000000000000000, 0.000000000000000 ) );
#228 = DIRECTION( '', ( 1.00000000000000, 0.000000000000000, 0.000000000000000 ) );
#229 = DIRECTION( '', ( 0.000000000000000, 0.000000000000000, -1.00000000000000 ) );
#230 = SURFACE_STYLE_FILL_AREA( #296 );
#231 = ORIENTED_EDGE( '', *, *, #281, .T. );
#232 = ORIENTED_EDGE( '', *, *, #297, .T. );
#233 = CARTESIAN_POINT( '', ( -29.2500000000000, 0.000000000000000, 54.0000000000000 ) );
#234 = DIRECTION( '', ( 0.000000000000000, 0.000000000000000, 1.00000000000000 ) );
#235 = DIRECTION( '', ( 1.00000000000000, 0.000000000000000, -0.000000000000000 ) );
#236 = SURFACE_STYLE_FILL_AREA( #298 );
#237 = ORIENTED_EDGE( '', *, *, #299, .T. );
#238 = ORIENTED_EDGE( '', *, *, #295, .F. );
#239 = CARTESIAN_POINT( '', ( 24.5000000000000, 0.000000000000000, 0.000000000000000 ) );
#240 = DIRECTION( '', ( -1.00000000000000, -0.000000000000000, 0.000000000000000 ) );
#241 = DIRECTION( '', ( -0.000000000000000, 0.000000000000000, -1.00000000000000 ) );
#242 = SURFACE_STYLE_FILL_AREA( #300 );
#243 = ORIENTED_EDGE( '', *, *, #297, .F. );
#244 = ORIENTED_EDGE( '', *, *, #286, .T. );
#245 = ORIENTED_EDGE( '', *, *, #285, .T. );
#246 = CARTESIAN_POINT( '', ( -29.2500000000000, 0.000000000000000, 54.0000000000000 ) );
#247 = DIRECTION( '', ( 0.000000000000000, -0.000000000000000, 1.00000000000000 ) );
#248 = DIRECTION( '', ( -1.00000000000000, 0.000000000000000, 0.000000000000000 ) );
#249 = SURFACE_STYLE_FILL_AREA( #301 );
#250 = ORIENTED_EDGE( '', *, *, #302, .F. );
#251 = ORIENTED_EDGE( '', *, *, #284, .T. );
#252 = CARTESIAN_POINT( '', ( 24.5000000000000, 0.000000000000000, 0.000000000000000 ) );
#253 = DIRECTION( '', ( 1.00000000000000, 0.000000000000000, 0.000000000000000 ) );
#254 = DIRECTION( '', ( 0.000000000000000, 0.000000000000000, -1.00000000000000 ) );
#255 = SURFACE_STYLE_FILL_AREA( #303 );
#256 = ORIENTED_EDGE( '', *, *, #304, .T. );
#257 = ORIENTED_EDGE( '', *, *, #292, .F. );
#258 = CARTESIAN_POINT( '', ( 0.000000000000000, 0.000000000000000, 22.5000000000000 ) );
#259 = DIRECTION( '', ( 1.00000000000000, 0.000000000000000, -0.000000000000000 ) );
#260 = DIRECTION( '', ( -0.000000000000000, 0.000000000000000, -1.00000000000000 ) );
#261 = SURFACE_STYLE_FILL_AREA( #305 );
#262 = ORIENTED_EDGE( '', *, *, #302, .T. );
#263 = ORIENTED_EDGE( '', *, *, #304, .F. );
#264 = CARTESIAN_POINT( '', ( 24.5000000000000, 0.000000000000000, 0.000000000000000 ) );
#265 = DIRECTION( '', ( -1.00000000000000, -0.000000000000000, 0.000000000000000 ) );
#266 = DIRECTION( '', ( -0.000000000000000, 0.000000000000000, -1.00000000000000 ) );
#267 = SURFACE_STYLE_FILL_AREA( #306 );
#268 = ORIENTED_EDGE( '', *, *, #290, .T. );
#269 = ORIENTED_EDGE( '', *, *, #280, .F. );
#270 = CARTESIAN_POINT( '', ( -4.25000000000000, 0.000000000000000, 29.5000000000000 ) );
#271 = DIRECTION( '', ( 0.000000000000000, 0.000000000000000, 1.00000000000000 ) );
#272 = DIRECTION( '', ( 1.00000000000000, 0.000000000000000, -0.000000000000000 ) );
#273 = SURFACE_STYLE_FILL_AREA( #307 );
#274 = ORIENTED_EDGE( '', *, *, #293, .T. );
#275 = ORIENTED_EDGE( '', *, *, #299, .F. );
#276 = CARTESIAN_POINT( '', ( -58.5000000000000, 0.000000000000000, 25.0000000000000 ) );
#277 = DIRECTION( '', ( -1.00000000000000, 0.000000000000000, 0.000000000000000 ) );
#278 = DIRECTION( '', ( 0.000000000000000, 0.000000000000000, 1.00000000000000 ) );
#279 = FILL_AREA_STYLE( '', ( #308 ) );
#280 = EDGE_CURVE( '', #309, #309, #310, .T. );
#281 = EDGE_CURVE( '', #311, #311, #312, .T. );
#282 = FILL_AREA_STYLE( '', ( #313 ) );
#283 = EDGE_CURVE( '', #314, #314, #315, .T. );
#284 = EDGE_CURVE( '', #316, #316, #317, .T. );
#285 = EDGE_CURVE( '', #318, #319, #320, .F. );
#286 = EDGE_CURVE( '', #319, #318, #321, .T. );
#287 = FILL_AREA_STYLE( '', ( #322 ) );
#288 = EDGE_CURVE( '', #323, #324, #325, .F. );
#289 = EDGE_CURVE( '', #324, #323, #326, .T. );
#290 = EDGE_CURVE( '', #327, #327, #328, .T. );
#291 = FILL_AREA_STYLE( '', ( #329 ) );
#292 = EDGE_CURVE( '', #330, #330, #331, .T. );
#293 = EDGE_CURVE( '', #332, #332, #333, .T. );
#294 = FILL_AREA_STYLE( '', ( #334 ) );
#295 = EDGE_CURVE( '', #335, #335, #336, .T. );
#296 = FILL_AREA_STYLE( '', ( #337 ) );
#297 = EDGE_CURVE( '', #338, #338, #339, .T. );
#298 = FILL_AREA_STYLE( '', ( #340 ) );
#299 = EDGE_CURVE( '', #341, #341, #342, .T. );
#300 = FILL_AREA_STYLE( '', ( #343 ) );
#301 = FILL_AREA_STYLE( '', ( #344 ) );
#302 = EDGE_CURVE( '', #345, #345, #346, .T. );
#303 = FILL_AREA_STYLE( '', ( #347 ) );
#304 = EDGE_CURVE( '', #348, #348, #349, .T. );
#305 = FILL_AREA_STYLE( '', ( #350 ) );
#306 = FILL_AREA_STYLE( '', ( #351 ) );
#307 = FILL_AREA_STYLE( '', ( #352 ) );
#308 = FILL_AREA_STYLE_COLOUR( '', #353 );
#309 = VERTEX_POINT( '', #354 );
#310 = CIRCLE( '', #355, 25.0000000000000 );
#311 = VERTEX_POINT( '', #356 );
#312 = CIRCLE( '', #357, 25.0000000000000 );
#313 = FILL_AREA_STYLE_COLOUR( '', #358 );
#314 = VERTEX_POINT( '', #359 );
#315 = CIRCLE( '', #360, 32.5000000000000 );
#316 = VERTEX_POINT( '', #361 );
#317 = CIRCLE( '', #362, 32.5000000000000 );
#318 = VERTEX_POINT( '', #363 );
#319 = VERTEX_POINT( '', #364 );
#320 = ELLIPSE( '', #365, 45.9619407771000, 32.5000000000000 );
#321 = ELLIPSE( '', #366, 45.9619407771000, 32.5000000000000 );
#322 = FILL_AREA_STYLE_COLOUR( '', #367 );
#323 = VERTEX_POINT( '', #368 );
#324 = VERTEX_POINT( '', #369 );
#325 = ELLIPSE( '', #370, 31.8198051534000, 22.5000000000000 );
#326 = ELLIPSE( '', #371, 31.8198051534000, 22.5000000000000 );
#327 = VERTEX_POINT( '', #372 );
#328 = CIRCLE( '', #373, 22.5000000000000 );
#329 = FILL_AREA_STYLE_COLOUR( '', #374 );
#330 = VERTEX_POINT( '', #375 );
#331 = CIRCLE( '', #376, 22.5000000000000 );
#332 = VERTEX_POINT( '', #377 );
#333 = CIRCLE( '', #378, 22.5000000000000 );
#334 = FILL_AREA_STYLE_COLOUR( '', #379 );
#335 = VERTEX_POINT( '', #380 );
#336 = CIRCLE( '', #381, 25.0000000000000 );
#337 = FILL_AREA_STYLE_COLOUR( '', #382 );
#338 = VERTEX_POINT( '', #383 );
#339 = CIRCLE( '', #384, 32.5000000000000 );
#340 = FILL_AREA_STYLE_COLOUR( '', #385 );
#341 = VERTEX_POINT( '', #386 );
#342 = CIRCLE( '', #387, 25.0000000000000 );
#343 = FILL_AREA_STYLE_COLOUR( '', #388 );
#344 = FILL_AREA_STYLE_COLOUR( '', #389 );
#345 = VERTEX_POINT( '', #390 );
#346 = CIRCLE( '', #391, 25.0000000000000 );
#347 = FILL_AREA_STYLE_COLOUR( '', #392 );
#348 = VERTEX_POINT( '', #393 );
#349 = CIRCLE( '', #394, 25.0000000000000 );
#350 = FILL_AREA_STYLE_COLOUR( '', #395 );
#351 = FILL_AREA_STYLE_COLOUR( '', #396 );
#352 = FILL_AREA_STYLE_COLOUR( '', #397 );
#353 = COLOUR_RGB( '', 0.689999997600000, 0.689999997600000, 0.689999997600000 );
#354 = CARTESIAN_POINT( '', ( -54.2500000000000, 0.000000000000000, 29.5000000000000 ) );
#355 = AXIS2_PLACEMENT_3D( '', #398, #399, #400 );
#356 = CARTESIAN_POINT( '', ( -54.2500000000000, 0.000000000000000, 54.0000000000000 ) );
#357 = AXIS2_PLACEMENT_3D( '', #401, #402, #403 );
#358 = COLOUR_RGB( '', 0.689999997600000, 0.689999997600000, 0.689999997600000 );
#359 = CARTESIAN_POINT( '', ( -83.0000000000000, 32.5000000000000, 0.000000000000000 ) );
#360 = AXIS2_PLACEMENT_3D( '', #404, #405, #406 );
#361 = CARTESIAN_POINT( '', ( 24.5000000000000, 32.5000000000000, 0.000000000000000 ) );
#362 = AXIS2_PLACEMENT_3D( '', #407, #408, #409 );
#363 = CARTESIAN_POINT( '', ( -29.2500000000000, 32.5000000000000, 0.000000000000000 ) );
#364 = CARTESIAN_POINT( '', ( -29.2500000000000, -32.5000000000000, 0.000000000000000 ) );
#365 = AXIS2_PLACEMENT_3D( '', #410, #411, #412 );
#366 = AXIS2_PLACEMENT_3D( '', #413, #414, #415 );
#367 = COLOUR_RGB( '', 0.689999997600000, 0.689999997600000, 0.689999997600000 );
#368 = CARTESIAN_POINT( '', ( -29.2500000000000, -22.5000000000000, 1.73472347597681E-15 ) );
#369 = CARTESIAN_POINT( '', ( -29.2500000000000, 22.5000000000000, 3.46944695195361E-15 ) );
#370 = AXIS2_PLACEMENT_3D( '', #416, #417, #418 );
#371 = AXIS2_PLACEMENT_3D( '', #419, #420, #421 );
#372 = CARTESIAN_POINT( '', ( -51.7500000000000, 0.000000000000000, 29.5000000000000 ) );
#373 = AXIS2_PLACEMENT_3D( '', #422, #423, #424 );
#374 = COLOUR_RGB( '', 0.689999997600000, 0.689999997600000, 0.689999997600000 );
#375 = CARTESIAN_POINT( '', ( 0.000000000000000, 0.000000000000000, -22.5000000000000 ) );
#376 = AXIS2_PLACEMENT_3D( '', #425, #426, #427 );
#377 = CARTESIAN_POINT( '', ( -58.5000000000000, 0.000000000000000, -22.5000000000000 ) );
#378 = AXIS2_PLACEMENT_3D( '', #428, #429, #430 );
#379 = COLOUR_RGB( '', 0.689999997600000, 0.689999997600000, 0.689999997600000 );
#380 = CARTESIAN_POINT( '', ( -83.0000000000000, 0.000000000000000, -25.0000000000000 ) );
#381 = AXIS2_PLACEMENT_3D( '', #431, #432, #433 );
#382 = COLOUR_RGB( '', 0.689999997600000, 0.689999997600000, 0.689999997600000 );
#383 = CARTESIAN_POINT( '', ( 3.25000000000000, 0.000000000000000, 54.0000000000000 ) );
#384 = AXIS2_PLACEMENT_3D( '', #434, #435, #436 );
#385 = COLOUR_RGB( '', 0.689999997600000, 0.689999997600000, 0.689999997600000 );
#386 = CARTESIAN_POINT( '', ( -58.5000000000000, 0.000000000000000, -25.0000000000000 ) );
#387 = AXIS2_PLACEMENT_3D( '', #437, #438, #439 );
#388 = COLOUR_RGB( '', 0.689999997600000, 0.689999997600000, 0.689999997600000 );
#389 = COLOUR_RGB( '', 0.689999997600000, 0.689999997600000, 0.689999997600000 );
#390 = CARTESIAN_POINT( '', ( 24.5000000000000, 0.000000000000000, -25.0000000000000 ) );
#391 = AXIS2_PLACEMENT_3D( '', #440, #441, #442 );
#392 = COLOUR_RGB( '', 0.689999997600000, 0.689999997600000, 0.689999997600000 );
#393 = CARTESIAN_POINT( '', ( 0.000000000000000, 0.000000000000000, -25.0000000000000 ) );
#394 = AXIS2_PLACEMENT_3D( '', #443, #444, #445 );
#395 = COLOUR_RGB( '', 0.689999997600000, 0.689999997600000, 0.689999997600000 );
#396 = COLOUR_RGB( '', 0.689999997600000, 0.689999997600000, 0.689999997600000 );
#397 = COLOUR_RGB( '', 0.689999997600000, 0.689999997600000, 0.689999997600000 );
#398 = CARTESIAN_POINT( '', ( -29.2500000000000, 0.000000000000000, 29.5000000000000 ) );
#399 = DIRECTION( '', ( -0.000000000000000, 0.000000000000000, -1.00000000000000 ) );
#400 = DIRECTION( '', ( -1.00000000000000, 0.000000000000000, 0.000000000000000 ) );
#401 = CARTESIAN_POINT( '', ( -29.2500000000000, 0.000000000000000, 54.0000000000000 ) );
#402 = DIRECTION( '', ( -0.000000000000000, 0.000000000000000, -1.00000000000000 ) );
#403 = DIRECTION( '', ( -1.00000000000000, 0.000000000000000, 0.000000000000000 ) );
#404 = CARTESIAN_POINT( '', ( -83.0000000000000, 0.000000000000000, 0.000000000000000 ) );
#405 = DIRECTION( '', ( 1.00000000000000, 0.000000000000000, 0.000000000000000 ) );
#406 = DIRECTION( '', ( 0.000000000000000, 1.00000000000000, 0.000000000000000 ) );
#407 = CARTESIAN_POINT( '', ( 24.5000000000000, 0.000000000000000, 0.000000000000000 ) );
#408 = DIRECTION( '', ( 1.00000000000000, 0.000000000000000, 0.000000000000000 ) );
#409 = DIRECTION( '', ( 0.000000000000000, 1.00000000000000, 0.000000000000000 ) );
#410 = CARTESIAN_POINT( '', ( -29.2500000000000, 0.000000000000000, 0.000000000000000 ) );
#411 = DIRECTION( '', ( -0.707106781186548, 0.000000000000000, -0.707106781186548 ) );
#412 = DIRECTION( '', ( -0.707106781186548, 0.000000000000000, 0.707106781186548 ) );
#413 = CARTESIAN_POINT( '', ( -29.2500000000000, 0.000000000000000, 0.000000000000000 ) );
#414 = DIRECTION( '', ( -0.707106781186548, 0.000000000000000, 0.707106781186548 ) );
#415 = DIRECTION( '', ( -0.707106781186548, -0.000000000000000, -0.707106781186548 ) );
#416 = CARTESIAN_POINT( '', ( -29.2500000000000, 0.000000000000000, 0.000000000000000 ) );
#417 = DIRECTION( '', ( 0.707106781186548, 0.000000000000000, -0.707106781186548 ) );
#418 = DIRECTION( '', ( 0.707106781186548, 0.000000000000000, 0.707106781186548 ) );
#419 = CARTESIAN_POINT( '', ( -29.2500000000000, 0.000000000000000, 0.000000000000000 ) );
#420 = DIRECTION( '', ( 0.707106781186548, 0.000000000000000, 0.707106781186548 ) );
#421 = DIRECTION( '', ( 0.707106781186548, -0.000000000000000, -0.707106781186548 ) );
#422 = CARTESIAN_POINT( '', ( -29.2500000000000, 0.000000000000000, 29.5000000000000 ) );
#423 = DIRECTION( '', ( -0.000000000000000, 0.000000000000000, -1.00000000000000 ) );
#424 = DIRECTION( '', ( -1.00000000000000, 0.000000000000000, 0.000000000000000 ) );
#425 = CARTESIAN_POINT( '', ( 0.000000000000000, 0.000000000000000, 0.000000000000000 ) );
#426 = DIRECTION( '', ( 1.00000000000000, 0.000000000000000, -0.000000000000000 ) );
#427 = DIRECTION( '', ( -0.000000000000000, 0.000000000000000, -1.00000000000000 ) );
#428 = CARTESIAN_POINT( '', ( -58.5000000000000, 0.000000000000000, 0.000000000000000 ) );
#429 = DIRECTION( '', ( 1.00000000000000, 0.000000000000000, -0.000000000000000 ) );
#430 = DIRECTION( '', ( -0.000000000000000, 0.000000000000000, -1.00000000000000 ) );
#431 = CARTESIAN_POINT( '', ( -83.0000000000000, 0.000000000000000, 0.000000000000000 ) );
#432 = DIRECTION( '', ( 1.00000000000000, 0.000000000000000, -0.000000000000000 ) );
#433 = DIRECTION( '', ( -0.000000000000000, 0.000000000000000, -1.00000000000000 ) );
#434 = CARTESIAN_POINT( '', ( -29.2500000000000, 0.000000000000000, 54.0000000000000 ) );
#435 = DIRECTION( '', ( 0.000000000000000, 0.000000000000000, 1.00000000000000 ) );
#436 = DIRECTION( '', ( 1.00000000000000, 0.000000000000000, 0.000000000000000 ) );
#437 = CARTESIAN_POINT( '', ( -58.5000000000000, 0.000000000000000, 0.000000000000000 ) );
#438 = DIRECTION( '', ( 1.00000000000000, 0.000000000000000, -0.000000000000000 ) );
#439 = DIRECTION( '', ( -0.000000000000000, 0.000000000000000, -1.00000000000000 ) );
#440 = CARTESIAN_POINT( '', ( 24.5000000000000, 0.000000000000000, 0.000000000000000 ) );
#441 = DIRECTION( '', ( 1.00000000000000, 0.000000000000000, -0.000000000000000 ) );
#442 = DIRECTION( '', ( -0.000000000000000, 0.000000000000000, -1.00000000000000 ) );
#443 = CARTESIAN_POINT( '', ( 0.000000000000000, 0.000000000000000, 0.000000000000000 ) );
#444 = DIRECTION( '', ( 1.00000000000000, 0.000000000000000, -0.000000000000000 ) );
#445 = DIRECTION( '', ( -0.000000000000000, 0.000000000000000, -1.00000000000000 ) );
ENDSEC;
END-ISO-10303-21;
