ISO-10303-21;
HEADER;
FILE_DESCRIPTION( ( '' ), '1' );
FILE_NAME( '//se01002/users/anro/AGRU_12705045000_PPH_grau_Rohr__5m_450X6_0__Ventilation_10.stp', '2018-02-07T08:12:32', ( '' ), ( '' ), ' ', ' ', ' ' );
FILE_SCHEMA( ( 'automotive_design' ) );
ENDSEC;
DATA;
#1 = MECHANICAL_DESIGN_GEOMETRIC_PRESENTATION_REPRESENTATION( ' ', ( #10, #11, #12, #13, #14, #15, #16, #17, #18, #19, #20, #21, #22, #23, #24, #25, #26, #27, #28, #29, #30, #31, #32, #33, #34, #35, #36 ), #6 );
#2 = PRODUCT_DEFINITION_CONTEXT( '', #37, 'design' );
#3 = APPLICATION_PROTOCOL_DEFINITION( 'INTERNATIONAL STANDARD', 'automotive_design', 1994, #37 );
#4 = PRODUCT_CATEGORY_RELATIONSHIP( 'NONE', 'NONE', #38, #39 );
#5 = SHAPE_DEFINITION_REPRESENTATION( #40, #41 );
#6 =  ( GEOMETRIC_REPRESENTATION_CONTEXT( 3 )GLOBAL_UNCERTAINTY_ASSIGNED_CONTEXT( ( #44 ) )GLOBAL_UNIT_ASSIGNED_CONTEXT( ( #46, #47, #48 ) )REPRESENTATION_CONTEXT( 'NONE', 'WORKSPACE' ) );
#10 = STYLED_ITEM( '', ( #50 ), #51 );
#11 = STYLED_ITEM( '', ( #52 ), #53 );
#12 = STYLED_ITEM( '', ( #54 ), #55 );
#13 = STYLED_ITEM( '', ( #56 ), #57 );
#14 = STYLED_ITEM( '', ( #58 ), #59 );
#15 = STYLED_ITEM( '', ( #60 ), #61 );
#16 = STYLED_ITEM( '', ( #62 ), #63 );
#17 = STYLED_ITEM( '', ( #64 ), #65 );
#18 = STYLED_ITEM( '', ( #66 ), #67 );
#19 = STYLED_ITEM( '', ( #68 ), #69 );
#20 = STYLED_ITEM( '', ( #70 ), #71 );
#21 = STYLED_ITEM( '', ( #72 ), #73 );
#22 = STYLED_ITEM( '', ( #74 ), #75 );
#23 = STYLED_ITEM( '', ( #76 ), #77 );
#24 = STYLED_ITEM( '', ( #78 ), #79 );
#25 = STYLED_ITEM( '', ( #80 ), #81 );
#26 = STYLED_ITEM( '', ( #82 ), #83 );
#27 = STYLED_ITEM( '', ( #84 ), #85 );
#28 = STYLED_ITEM( '', ( #86 ), #87 );
#29 = STYLED_ITEM( '', ( #88 ), #89 );
#30 = STYLED_ITEM( '', ( #90 ), #91 );
#31 = STYLED_ITEM( '', ( #92 ), #93 );
#32 = STYLED_ITEM( '', ( #94 ), #95 );
#33 = STYLED_ITEM( '', ( #96 ), #97 );
#34 = STYLED_ITEM( '', ( #98 ), #99 );
#35 = STYLED_ITEM( '', ( #100 ), #101 );
#36 = STYLED_ITEM( '', ( #102 ), #103 );
#37 = APPLICATION_CONTEXT( ' ' );
#38 = PRODUCT_CATEGORY( 'part', 'NONE' );
#39 = PRODUCT_RELATED_PRODUCT_CATEGORY( 'detail', ' ', ( #104 ) );
#40 = PRODUCT_DEFINITION_SHAPE( 'NONE', 'NONE', #105 );
#41 = ADVANCED_BREP_SHAPE_REPRESENTATION( '1', ( #71, #106 ), #6 );
#44 = UNCERTAINTY_MEASURE_WITH_UNIT( LENGTH_MEASURE( 1.00000000000000E-006 ), #46, '', '' );
#46 =  ( CONVERSION_BASED_UNIT( 'MILLIMETRE', #109 )LENGTH_UNIT(  )NAMED_UNIT( #112 ) );
#47 =  ( NAMED_UNIT( #114 )PLANE_ANGLE_UNIT(  )SI_UNIT( $, .RADIAN. ) );
#48 =  ( NAMED_UNIT( #114 )SOLID_ANGLE_UNIT(  )SI_UNIT( $, .STERADIAN. ) );
#50 = PRESENTATION_STYLE_ASSIGNMENT( ( #120 ) );
#51 = ADVANCED_FACE( '', ( #121 ), #122, .F. );
#52 = PRESENTATION_STYLE_ASSIGNMENT( ( #123 ) );
#53 = EDGE_CURVE( '', #93, #85, #124, .T. );
#54 = PRESENTATION_STYLE_ASSIGNMENT( ( #125 ) );
#55 = VERTEX_POINT( '', #126 );
#56 = PRESENTATION_STYLE_ASSIGNMENT( ( #127 ) );
#57 = EDGE_CURVE( '', #93, #99, #128, .T. );
#58 = PRESENTATION_STYLE_ASSIGNMENT( ( #129 ) );
#59 = VERTEX_POINT( '', #130 );
#60 = PRESENTATION_STYLE_ASSIGNMENT( ( #131 ) );
#61 = ADVANCED_FACE( '', ( #132 ), #133, .T. );
#62 = PRESENTATION_STYLE_ASSIGNMENT( ( #134 ) );
#63 = ADVANCED_FACE( '', ( #135, #136 ), #137, .T. );
#64 = PRESENTATION_STYLE_ASSIGNMENT( ( #138 ) );
#65 = VERTEX_POINT( '', #139 );
#66 = PRESENTATION_STYLE_ASSIGNMENT( ( #140 ) );
#67 = EDGE_CURVE( '', #65, #81, #141, .T. );
#68 = PRESENTATION_STYLE_ASSIGNMENT( ( #142 ) );
#69 = EDGE_CURVE( '', #95, #85, #143, .T. );
#70 = PRESENTATION_STYLE_ASSIGNMENT( ( #144 ) );
#71 = MANIFOLD_SOLID_BREP( '1', #145 );
#72 = PRESENTATION_STYLE_ASSIGNMENT( ( #146 ) );
#73 = ADVANCED_FACE( '', ( #147 ), #148, .T. );
#74 = PRESENTATION_STYLE_ASSIGNMENT( ( #149 ) );
#75 = EDGE_CURVE( '', #65, #59, #150, .T. );
#76 = PRESENTATION_STYLE_ASSIGNMENT( ( #151 ) );
#77 = EDGE_CURVE( '', #59, #55, #152, .T. );
#78 = PRESENTATION_STYLE_ASSIGNMENT( ( #153 ) );
#79 = EDGE_CURVE( '', #81, #65, #154, .T. );
#80 = PRESENTATION_STYLE_ASSIGNMENT( ( #155 ) );
#81 = VERTEX_POINT( '', #156 );
#82 = PRESENTATION_STYLE_ASSIGNMENT( ( #157 ) );
#83 = EDGE_CURVE( '', #55, #59, #158, .T. );
#84 = PRESENTATION_STYLE_ASSIGNMENT( ( #159 ) );
#85 = VERTEX_POINT( '', #160 );
#86 = PRESENTATION_STYLE_ASSIGNMENT( ( #161 ) );
#87 = EDGE_CURVE( '', #95, #99, #162, .T. );
#88 = PRESENTATION_STYLE_ASSIGNMENT( ( #163 ) );
#89 = EDGE_CURVE( '', #55, #81, #164, .T. );
#90 = PRESENTATION_STYLE_ASSIGNMENT( ( #165 ) );
#91 = ADVANCED_FACE( '', ( #166, #167 ), #168, .F. );
#92 = PRESENTATION_STYLE_ASSIGNMENT( ( #169 ) );
#93 = VERTEX_POINT( '', #170 );
#94 = PRESENTATION_STYLE_ASSIGNMENT( ( #171 ) );
#95 = VERTEX_POINT( '', #172 );
#96 = PRESENTATION_STYLE_ASSIGNMENT( ( #173 ) );
#97 = ADVANCED_FACE( '', ( #174 ), #175, .F. );
#98 = PRESENTATION_STYLE_ASSIGNMENT( ( #176 ) );
#99 = VERTEX_POINT( '', #177 );
#100 = PRESENTATION_STYLE_ASSIGNMENT( ( #178 ) );
#101 = EDGE_CURVE( '', #99, #93, #179, .T. );
#102 = PRESENTATION_STYLE_ASSIGNMENT( ( #180 ) );
#103 = EDGE_CURVE( '', #85, #95, #181, .T. );
#104 = PRODUCT( '1', '1', 'PART-1-DESC', ( #182 ) );
#105 = PRODUCT_DEFINITION( 'NONE', 'NONE', #183, #2 );
#106 = AXIS2_PLACEMENT_3D( '', #184, #185, #186 );
#109 = LENGTH_MEASURE_WITH_UNIT( LENGTH_MEASURE( 1.00000000000000 ), #187 );
#112 = DIMENSIONAL_EXPONENTS( 1.00000000000000, 0.000000000000000, 0.000000000000000, 0.000000000000000, 0.000000000000000, 0.000000000000000, 0.000000000000000 );
#114 = DIMENSIONAL_EXPONENTS( 0.000000000000000, 0.000000000000000, 0.000000000000000, 0.000000000000000, 0.000000000000000, 0.000000000000000, 0.000000000000000 );
#120 = SURFACE_STYLE_USAGE( .BOTH., #188 );
#121 = FACE_OUTER_BOUND( '', #189, .T. );
#122 = CYLINDRICAL_SURFACE( '', #190, 219.000000000000 );
#123 = CURVE_STYLE( '', #191, POSITIVE_LENGTH_MEASURE( 1.00000000000000E-006 ), #192 );
#124 = LINE( '', #193, #194 );
#125 = POINT_STYLE( ' ', #195, POSITIVE_LENGTH_MEASURE( 1.00000000000000E-006 ), #196 );
#126 = CARTESIAN_POINT( '', ( 5000.00000000000, 2.75536429610035E-014, 225.000000000000 ) );
#127 = CURVE_STYLE( '', #197, POSITIVE_LENGTH_MEASURE( 1.00000000000000E-006 ), #198 );
#128 = CIRCLE( '', #199, 219.000000000000 );
#129 = POINT_STYLE( ' ', #200, POSITIVE_LENGTH_MEASURE( 1.00000000000000E-006 ), #201 );
#130 = CARTESIAN_POINT( '', ( 5000.00000000000, 0.000000000000000, -225.000000000000 ) );
#131 = SURFACE_STYLE_USAGE( .BOTH., #202 );
#132 = FACE_OUTER_BOUND( '', #203, .T. );
#133 = CYLINDRICAL_SURFACE( '', #204, 225.000000000000 );
#134 = SURFACE_STYLE_USAGE( .BOTH., #205 );
#135 = FACE_OUTER_BOUND( '', #206, .T. );
#136 = FACE_BOUND( '', #207, .T. );
#137 = PLANE( '', #208 );
#138 = POINT_STYLE( ' ', #209, POSITIVE_LENGTH_MEASURE( 1.00000000000000E-006 ), #210 );
#139 = CARTESIAN_POINT( '', ( 0.000000000000000, 0.000000000000000, -225.000000000000 ) );
#140 = CURVE_STYLE( '', #211, POSITIVE_LENGTH_MEASURE( 1.00000000000000E-006 ), #212 );
#141 = CIRCLE( '', #213, 225.000000000000 );
#142 = CURVE_STYLE( '', #214, POSITIVE_LENGTH_MEASURE( 1.00000000000000E-006 ), #215 );
#143 = CIRCLE( '', #216, 219.000000000000 );
#144 = SURFACE_STYLE_USAGE( .BOTH., #217 );
#145 = CLOSED_SHELL( '', ( #61, #97, #51, #73, #63, #91 ) );
#146 = SURFACE_STYLE_USAGE( .BOTH., #218 );
#147 = FACE_OUTER_BOUND( '', #219, .T. );
#148 = CYLINDRICAL_SURFACE( '', #220, 225.000000000000 );
#149 = CURVE_STYLE( '', #221, POSITIVE_LENGTH_MEASURE( 1.00000000000000E-006 ), #222 );
#150 = LINE( '', #223, #224 );
#151 = CURVE_STYLE( '', #225, POSITIVE_LENGTH_MEASURE( 1.00000000000000E-006 ), #226 );
#152 = CIRCLE( '', #227, 225.000000000000 );
#153 = CURVE_STYLE( '', #228, POSITIVE_LENGTH_MEASURE( 1.00000000000000E-006 ), #229 );
#154 = CIRCLE( '', #230, 225.000000000000 );
#155 = POINT_STYLE( ' ', #231, POSITIVE_LENGTH_MEASURE( 1.00000000000000E-006 ), #232 );
#156 = CARTESIAN_POINT( '', ( 0.000000000000000, 2.75536429610035E-014, 225.000000000000 ) );
#157 = CURVE_STYLE( '', #233, POSITIVE_LENGTH_MEASURE( 1.00000000000000E-006 ), #234 );
#158 = CIRCLE( '', #235, 225.000000000000 );
#159 = POINT_STYLE( ' ', #236, POSITIVE_LENGTH_MEASURE( 1.00000000000000E-006 ), #237 );
#160 = CARTESIAN_POINT( '', ( 5000.00000000000, 0.000000000000000, -219.000000000000 ) );
#161 = CURVE_STYLE( '', #238, POSITIVE_LENGTH_MEASURE( 1.00000000000000E-006 ), #239 );
#162 = LINE( '', #240, #241 );
#163 = CURVE_STYLE( '', #242, POSITIVE_LENGTH_MEASURE( 1.00000000000000E-006 ), #243 );
#164 = LINE( '', #244, #245 );
#165 = SURFACE_STYLE_USAGE( .BOTH., #246 );
#166 = FACE_OUTER_BOUND( '', #247, .T. );
#167 = FACE_BOUND( '', #248, .T. );
#168 = PLANE( '', #249 );
#169 = POINT_STYLE( ' ', #250, POSITIVE_LENGTH_MEASURE( 1.00000000000000E-006 ), #251 );
#170 = CARTESIAN_POINT( '', ( 0.000000000000000, 0.000000000000000, -219.000000000000 ) );
#171 = POINT_STYLE( ' ', #252, POSITIVE_LENGTH_MEASURE( 1.00000000000000E-006 ), #253 );
#172 = CARTESIAN_POINT( '', ( 5000.00000000000, 2.68188791487101E-014, 219.000000000000 ) );
#173 = SURFACE_STYLE_USAGE( .BOTH., #254 );
#174 = FACE_OUTER_BOUND( '', #255, .T. );
#175 = CYLINDRICAL_SURFACE( '', #256, 219.000000000000 );
#176 = POINT_STYLE( ' ', #257, POSITIVE_LENGTH_MEASURE( 1.00000000000000E-006 ), #258 );
#177 = CARTESIAN_POINT( '', ( 0.000000000000000, 2.68188791487101E-014, 219.000000000000 ) );
#178 = CURVE_STYLE( '', #259, POSITIVE_LENGTH_MEASURE( 1.00000000000000E-006 ), #260 );
#179 = CIRCLE( '', #261, 219.000000000000 );
#180 = CURVE_STYLE( '', #262, POSITIVE_LENGTH_MEASURE( 1.00000000000000E-006 ), #263 );
#181 = CIRCLE( '', #264, 219.000000000000 );
#182 = PRODUCT_CONTEXT( '', #37, 'mechanical' );
#183 = PRODUCT_DEFINITION_FORMATION_WITH_SPECIFIED_SOURCE( ' ', 'NONE', #104, .NOT_KNOWN. );
#184 = CARTESIAN_POINT( '', ( 0.000000000000000, 0.000000000000000, 0.000000000000000 ) );
#185 = DIRECTION( '', ( 0.000000000000000, 0.000000000000000, 1.00000000000000 ) );
#186 = DIRECTION( '', ( 1.00000000000000, 0.000000000000000, 0.000000000000000 ) );
#187 =  ( NAMED_UNIT( #112 )LENGTH_UNIT(  )SI_UNIT( .MILLI., .METRE. ) );
#188 = SURFACE_SIDE_STYLE( '', ( #266 ) );
#189 = EDGE_LOOP( '', ( #267, #268, #269, #270 ) );
#190 = AXIS2_PLACEMENT_3D( '', #271, #272, #273 );
#191 = DRAUGHTING_PRE_DEFINED_CURVE_FONT( 'continuous' );
#192 = COLOUR_RGB( '', 0.689999997615810, 0.689999997615810, 0.689999997615810 );
#193 = CARTESIAN_POINT( '', ( 0.000000000000000, -2.68188791487101E-014, -219.000000000000 ) );
#194 = VECTOR( '', #274, 1.00000000000000 );
#195 = PRE_DEFINED_MARKER( '' );
#196 = COLOUR_RGB( '', 0.689999997615810, 0.689999997615810, 0.689999997615810 );
#197 = DRAUGHTING_PRE_DEFINED_CURVE_FONT( 'continuous' );
#198 = COLOUR_RGB( '', 0.689999997615810, 0.689999997615810, 0.689999997615810 );
#199 = AXIS2_PLACEMENT_3D( '', #275, #276, #277 );
#200 = PRE_DEFINED_MARKER( '' );
#201 = COLOUR_RGB( '', 0.689999997615810, 0.689999997615810, 0.689999997615810 );
#202 = SURFACE_SIDE_STYLE( '', ( #278 ) );
#203 = EDGE_LOOP( '', ( #279, #280, #281, #282 ) );
#204 = AXIS2_PLACEMENT_3D( '', #283, #284, #285 );
#205 = SURFACE_SIDE_STYLE( '', ( #286 ) );
#206 = EDGE_LOOP( '', ( #287, #288 ) );
#207 = EDGE_LOOP( '', ( #289, #290 ) );
#208 = AXIS2_PLACEMENT_3D( '', #291, #292, #293 );
#209 = PRE_DEFINED_MARKER( '' );
#210 = COLOUR_RGB( '', 0.689999997615810, 0.689999997615810, 0.689999997615810 );
#211 = DRAUGHTING_PRE_DEFINED_CURVE_FONT( 'continuous' );
#212 = COLOUR_RGB( '', 0.689999997615810, 0.689999997615810, 0.689999997615810 );
#213 = AXIS2_PLACEMENT_3D( '', #294, #295, #296 );
#214 = DRAUGHTING_PRE_DEFINED_CURVE_FONT( 'continuous' );
#215 = COLOUR_RGB( '', 0.689999997615810, 0.689999997615810, 0.689999997615810 );
#216 = AXIS2_PLACEMENT_3D( '', #297, #298, #299 );
#217 = SURFACE_SIDE_STYLE( '', ( #300 ) );
#218 = SURFACE_SIDE_STYLE( '', ( #301 ) );
#219 = EDGE_LOOP( '', ( #302, #303, #304, #305 ) );
#220 = AXIS2_PLACEMENT_3D( '', #306, #307, #308 );
#221 = DRAUGHTING_PRE_DEFINED_CURVE_FONT( 'continuous' );
#222 = COLOUR_RGB( '', 0.689999997615810, 0.689999997615810, 0.689999997615810 );
#223 = CARTESIAN_POINT( '', ( 0.000000000000000, -2.75536429610035E-014, -225.000000000000 ) );
#224 = VECTOR( '', #309, 1.00000000000000 );
#225 = DRAUGHTING_PRE_DEFINED_CURVE_FONT( 'continuous' );
#226 = COLOUR_RGB( '', 0.689999997615810, 0.689999997615810, 0.689999997615810 );
#227 = AXIS2_PLACEMENT_3D( '', #310, #311, #312 );
#228 = DRAUGHTING_PRE_DEFINED_CURVE_FONT( 'continuous' );
#229 = COLOUR_RGB( '', 0.689999997615810, 0.689999997615810, 0.689999997615810 );
#230 = AXIS2_PLACEMENT_3D( '', #313, #314, #315 );
#231 = PRE_DEFINED_MARKER( '' );
#232 = COLOUR_RGB( '', 0.689999997615810, 0.689999997615810, 0.689999997615810 );
#233 = DRAUGHTING_PRE_DEFINED_CURVE_FONT( 'continuous' );
#234 = COLOUR_RGB( '', 0.689999997615810, 0.689999997615810, 0.689999997615810 );
#235 = AXIS2_PLACEMENT_3D( '', #316, #317, #318 );
#236 = PRE_DEFINED_MARKER( '' );
#237 = COLOUR_RGB( '', 0.689999997615810, 0.689999997615810, 0.689999997615810 );
#238 = DRAUGHTING_PRE_DEFINED_CURVE_FONT( 'continuous' );
#239 = COLOUR_RGB( '', 0.689999997615810, 0.689999997615810, 0.689999997615810 );
#240 = CARTESIAN_POINT( '', ( 0.000000000000000, 2.68188791487101E-014, 219.000000000000 ) );
#241 = VECTOR( '', #319, 1.00000000000000 );
#242 = DRAUGHTING_PRE_DEFINED_CURVE_FONT( 'continuous' );
#243 = COLOUR_RGB( '', 0.689999997615810, 0.689999997615810, 0.689999997615810 );
#244 = CARTESIAN_POINT( '', ( 0.000000000000000, 2.75536429610035E-014, 225.000000000000 ) );
#245 = VECTOR( '', #320, 1.00000000000000 );
#246 = SURFACE_SIDE_STYLE( '', ( #321 ) );
#247 = EDGE_LOOP( '', ( #322, #323 ) );
#248 = EDGE_LOOP( '', ( #324, #325 ) );
#249 = AXIS2_PLACEMENT_3D( '', #326, #327, #328 );
#250 = PRE_DEFINED_MARKER( '' );
#251 = COLOUR_RGB( '', 0.689999997615810, 0.689999997615810, 0.689999997615810 );
#252 = PRE_DEFINED_MARKER( '' );
#253 = COLOUR_RGB( '', 0.689999997615810, 0.689999997615810, 0.689999997615810 );
#254 = SURFACE_SIDE_STYLE( '', ( #329 ) );
#255 = EDGE_LOOP( '', ( #330, #331, #332, #333 ) );
#256 = AXIS2_PLACEMENT_3D( '', #334, #335, #336 );
#257 = PRE_DEFINED_MARKER( '' );
#258 = COLOUR_RGB( '', 0.689999997615810, 0.689999997615810, 0.689999997615810 );
#259 = DRAUGHTING_PRE_DEFINED_CURVE_FONT( 'continuous' );
#260 = COLOUR_RGB( '', 0.689999997615810, 0.689999997615810, 0.689999997615810 );
#261 = AXIS2_PLACEMENT_3D( '', #337, #338, #339 );
#262 = DRAUGHTING_PRE_DEFINED_CURVE_FONT( 'continuous' );
#263 = COLOUR_RGB( '', 0.689999997615810, 0.689999997615810, 0.689999997615810 );
#264 = AXIS2_PLACEMENT_3D( '', #340, #341, #342 );
#266 = SURFACE_STYLE_FILL_AREA( #343 );
#267 = ORIENTED_EDGE( '', *, *, #53, .T. );
#268 = ORIENTED_EDGE( '', *, *, #103, .T. );
#269 = ORIENTED_EDGE( '', *, *, #87, .T. );
#270 = ORIENTED_EDGE( '', *, *, #57, .F. );
#271 = CARTESIAN_POINT( '', ( 0.000000000000000, 0.000000000000000, 0.000000000000000 ) );
#272 = DIRECTION( '', ( -1.00000000000000, -0.000000000000000, -0.000000000000000 ) );
#273 = DIRECTION( '', ( 0.000000000000000, 0.000000000000000, -1.00000000000000 ) );
#274 = DIRECTION( '', ( 1.00000000000000, 0.000000000000000, 0.000000000000000 ) );
#275 = CARTESIAN_POINT( '', ( 0.000000000000000, 0.000000000000000, 0.000000000000000 ) );
#276 = DIRECTION( '', ( 1.00000000000000, -0.000000000000000, 0.000000000000000 ) );
#277 = DIRECTION( '', ( 0.000000000000000, 0.000000000000000, -1.00000000000000 ) );
#278 = SURFACE_STYLE_FILL_AREA( #344 );
#279 = ORIENTED_EDGE( '', *, *, #75, .F. );
#280 = ORIENTED_EDGE( '', *, *, #67, .T. );
#281 = ORIENTED_EDGE( '', *, *, #89, .F. );
#282 = ORIENTED_EDGE( '', *, *, #83, .T. );
#283 = CARTESIAN_POINT( '', ( 0.000000000000000, 0.000000000000000, 0.000000000000000 ) );
#284 = DIRECTION( '', ( -1.00000000000000, -0.000000000000000, -0.000000000000000 ) );
#285 = DIRECTION( '', ( 0.000000000000000, 0.000000000000000, -1.00000000000000 ) );
#286 = SURFACE_STYLE_FILL_AREA( #345 );
#287 = ORIENTED_EDGE( '', *, *, #77, .F. );
#288 = ORIENTED_EDGE( '', *, *, #83, .F. );
#289 = ORIENTED_EDGE( '', *, *, #103, .F. );
#290 = ORIENTED_EDGE( '', *, *, #69, .F. );
#291 = CARTESIAN_POINT( '', ( 5000.00000000000, 0.000000000000000, 0.000000000000000 ) );
#292 = DIRECTION( '', ( 1.00000000000000, 0.000000000000000, 0.000000000000000 ) );
#293 = DIRECTION( '', ( 0.000000000000000, 0.000000000000000, -1.00000000000000 ) );
#294 = CARTESIAN_POINT( '', ( 0.000000000000000, 0.000000000000000, 0.000000000000000 ) );
#295 = DIRECTION( '', ( 1.00000000000000, -0.000000000000000, 0.000000000000000 ) );
#296 = DIRECTION( '', ( 0.000000000000000, 0.000000000000000, -1.00000000000000 ) );
#297 = CARTESIAN_POINT( '', ( 5000.00000000000, 0.000000000000000, 0.000000000000000 ) );
#298 = DIRECTION( '', ( 1.00000000000000, 0.000000000000000, 0.000000000000000 ) );
#299 = DIRECTION( '', ( 0.000000000000000, 0.000000000000000, -1.00000000000000 ) );
#300 = SURFACE_STYLE_FILL_AREA( #346 );
#301 = SURFACE_STYLE_FILL_AREA( #347 );
#302 = ORIENTED_EDGE( '', *, *, #75, .T. );
#303 = ORIENTED_EDGE( '', *, *, #77, .T. );
#304 = ORIENTED_EDGE( '', *, *, #89, .T. );
#305 = ORIENTED_EDGE( '', *, *, #79, .T. );
#306 = CARTESIAN_POINT( '', ( 0.000000000000000, 0.000000000000000, 0.000000000000000 ) );
#307 = DIRECTION( '', ( -1.00000000000000, -0.000000000000000, -0.000000000000000 ) );
#308 = DIRECTION( '', ( 0.000000000000000, 0.000000000000000, -1.00000000000000 ) );
#309 = DIRECTION( '', ( 1.00000000000000, 0.000000000000000, 0.000000000000000 ) );
#310 = CARTESIAN_POINT( '', ( 5000.00000000000, 0.000000000000000, 0.000000000000000 ) );
#311 = DIRECTION( '', ( -1.00000000000000, 0.000000000000000, 0.000000000000000 ) );
#312 = DIRECTION( '', ( 0.000000000000000, 0.000000000000000, -1.00000000000000 ) );
#313 = CARTESIAN_POINT( '', ( 0.000000000000000, 0.000000000000000, 0.000000000000000 ) );
#314 = DIRECTION( '', ( 1.00000000000000, -0.000000000000000, 0.000000000000000 ) );
#315 = DIRECTION( '', ( 0.000000000000000, 0.000000000000000, -1.00000000000000 ) );
#316 = CARTESIAN_POINT( '', ( 5000.00000000000, 0.000000000000000, 0.000000000000000 ) );
#317 = DIRECTION( '', ( -1.00000000000000, 0.000000000000000, 0.000000000000000 ) );
#318 = DIRECTION( '', ( 0.000000000000000, 0.000000000000000, -1.00000000000000 ) );
#319 = DIRECTION( '', ( -1.00000000000000, 0.000000000000000, 0.000000000000000 ) );
#320 = DIRECTION( '', ( -1.00000000000000, -0.000000000000000, -0.000000000000000 ) );
#321 = SURFACE_STYLE_FILL_AREA( #348 );
#322 = ORIENTED_EDGE( '', *, *, #67, .F. );
#323 = ORIENTED_EDGE( '', *, *, #79, .F. );
#324 = ORIENTED_EDGE( '', *, *, #57, .T. );
#325 = ORIENTED_EDGE( '', *, *, #101, .T. );
#326 = CARTESIAN_POINT( '', ( 0.000000000000000, 0.000000000000000, 0.000000000000000 ) );
#327 = DIRECTION( '', ( 1.00000000000000, 0.000000000000000, 0.000000000000000 ) );
#328 = DIRECTION( '', ( 0.000000000000000, 0.000000000000000, -1.00000000000000 ) );
#329 = SURFACE_STYLE_FILL_AREA( #349 );
#330 = ORIENTED_EDGE( '', *, *, #53, .F. );
#331 = ORIENTED_EDGE( '', *, *, #101, .F. );
#332 = ORIENTED_EDGE( '', *, *, #87, .F. );
#333 = ORIENTED_EDGE( '', *, *, #69, .T. );
#334 = CARTESIAN_POINT( '', ( 0.000000000000000, 0.000000000000000, 0.000000000000000 ) );
#335 = DIRECTION( '', ( -1.00000000000000, -0.000000000000000, -0.000000000000000 ) );
#336 = DIRECTION( '', ( 0.000000000000000, 0.000000000000000, -1.00000000000000 ) );
#337 = CARTESIAN_POINT( '', ( 0.000000000000000, 0.000000000000000, 0.000000000000000 ) );
#338 = DIRECTION( '', ( 1.00000000000000, -0.000000000000000, 0.000000000000000 ) );
#339 = DIRECTION( '', ( 0.000000000000000, 0.000000000000000, -1.00000000000000 ) );
#340 = CARTESIAN_POINT( '', ( 5000.00000000000, 0.000000000000000, 0.000000000000000 ) );
#341 = DIRECTION( '', ( 1.00000000000000, 0.000000000000000, 0.000000000000000 ) );
#342 = DIRECTION( '', ( 0.000000000000000, 0.000000000000000, -1.00000000000000 ) );
#343 = FILL_AREA_STYLE( '', ( #350 ) );
#344 = FILL_AREA_STYLE( '', ( #351 ) );
#345 = FILL_AREA_STYLE( '', ( #352 ) );
#346 = FILL_AREA_STYLE( '', ( #353 ) );
#347 = FILL_AREA_STYLE( '', ( #354 ) );
#348 = FILL_AREA_STYLE( '', ( #355 ) );
#349 = FILL_AREA_STYLE( '', ( #356 ) );
#350 = FILL_AREA_STYLE_COLOUR( '', #357 );
#351 = FILL_AREA_STYLE_COLOUR( '', #358 );
#352 = FILL_AREA_STYLE_COLOUR( '', #359 );
#353 = FILL_AREA_STYLE_COLOUR( '', #360 );
#354 = FILL_AREA_STYLE_COLOUR( '', #361 );
#355 = FILL_AREA_STYLE_COLOUR( '', #362 );
#356 = FILL_AREA_STYLE_COLOUR( '', #363 );
#357 = COLOUR_RGB( '', 0.689999997615810, 0.689999997615810, 0.689999997615810 );
#358 = COLOUR_RGB( '', 0.689999997615810, 0.689999997615810, 0.689999997615810 );
#359 = COLOUR_RGB( '', 0.689999997615810, 0.689999997615810, 0.689999997615810 );
#360 = COLOUR_RGB( '', 0.689999997615810, 0.689999997615810, 0.689999997615810 );
#361 = COLOUR_RGB( '', 0.689999997615810, 0.689999997615810, 0.689999997615810 );
#362 = COLOUR_RGB( '', 0.689999997615810, 0.689999997615810, 0.689999997615810 );
#363 = COLOUR_RGB( '', 0.689999997615810, 0.689999997615810, 0.689999997615810 );
ENDSEC;
END-ISO-10303-21;
