ISO-10303-21;
HEADER;
/* Generated by software containing ST-Developer
 * from STEP Tools, Inc. (www.steptools.com) 
 */

FILE_DESCRIPTION(
/* description */ (''),
/* implementation_level */ '2;1');

FILE_NAME(
/* name */ 'C:\\Users\\Gabriele\\Desktop\\catalogo\\TR40\\TR40075D.stp',

/* time_stamp */ '2016-10-17T15:27:04+02:00',
/* author */ ('Gabriele'),
/* organization */ (''),
/* preprocessor_version */ 'ST-DEVELOPER v16.5',
/* originating_system */ 'Autodesk Inventor 2017',
/* authorisation */ '');

FILE_SCHEMA (('AUTOMOTIVE_DESIGN { 1 0 10303 214 3 1 1 }'));
ENDSEC;

DATA;
#10=MECHANICAL_DESIGN_GEOMETRIC_PRESENTATION_REPRESENTATION('',(#13),#465);
#11=SHAPE_REPRESENTATION_RELATIONSHIP('SRR','None',#474,#12);
#12=ADVANCED_BREP_SHAPE_REPRESENTATION('',(#14),#464);
#13=STYLED_ITEM('',(#483),#14);
#14=MANIFOLD_SOLID_BREP('Solido1',#200);
#15=B_SPLINE_CURVE_WITH_KNOTS('',3,(#333,#334,#335,#336,#337,#338,#339,
#340,#341,#342,#343,#344,#345,#346,#347,#348,#349,#350,#351,#352,#353,#354,
#355,#356,#357,#358,#359,#360,#361,#362,#363,#364,#365,#366,#367,#368,#369,
#370,#371,#372,#373,#374,#375,#376,#377,#378,#379,#380,#381,#382),
 .UNSPECIFIED.,.T.,.F.,(4,2,2,2,2,2,2,2,2,2,2,2,2,2,2,2,2,2,2,2,2,2,2,2,
4),(0.,0.276685150008214,0.553370300016428,1.10674060003286,1.65953402434633,
1.93593073650306,2.2123274486598,2.48872416081653,2.76512087297326,3.31791429728673,
3.87128459730316,4.14796974731138,4.42465489731959,4.7013400473278,4.97802519733602,
5.53139549735245,6.08418892166592,6.36058563382265,6.63698234597939,6.91337905813612,
7.18977577029285,7.74256919460632,8.29593949462275,8.57262464463096,8.84930979463918),
 .UNSPECIFIED.);
#16=B_SPLINE_CURVE_WITH_KNOTS('',3,(#393,#394,#395,#396,#397,#398,#399,
#400,#401,#402,#403,#404,#405,#406,#407,#408,#409,#410,#411,#412,#413,#414,
#415,#416,#417,#418,#419,#420,#421,#422,#423,#424,#425,#426,#427,#428,#429,
#430,#431,#432,#433,#434,#435,#436,#437,#438,#439,#440,#441,#442,#443,#444,
#445,#446,#447,#448,#449,#450,#451,#452,#453,#454,#455,#456,#457,#458),
 .UNSPECIFIED.,.T.,.F.,(4,2,2,2,2,2,2,2,2,2,2,2,2,2,2,2,2,2,2,2,2,2,2,2,
2,2,2,2,2,2,2,2,4),(0.,0.403031612245132,0.806063224490265,1.2090948367354,
1.61212644898053,2.01431265061783,2.41649885225513,2.81868505389243,3.22087125552973,
3.62305745716703,4.02524365880433,4.42742986044163,4.82961606207894,5.23264767432407,
5.6356792865692,6.03871089881433,6.44174251105946,6.8447741233046,7.24780573554973,
7.65083734779486,8.05386896003999,8.45605516167729,8.85824136331459,9.2604275649519,
9.6626137665892,10.0647999682265,10.4669861698638,10.8691723715011,11.2713585731384,
11.6743901853835,12.0774217976287,12.4804534098738,12.8834850221189),
 .UNSPECIFIED.);
#17=PLANE('',#207);
#18=PLANE('',#214);
#19=PLANE('',#221);
#20=PLANE('',#228);
#21=PLANE('',#231);
#22=PLANE('',#232);
#23=CYLINDRICAL_SURFACE('',#205,37.5);
#24=CYLINDRICAL_SURFACE('',#212,37.5);
#25=CYLINDRICAL_SURFACE('',#219,16.);
#26=CYLINDRICAL_SURFACE('',#223,14.5);
#27=CYLINDRICAL_SURFACE('',#225,36.);
#28=CYLINDRICAL_SURFACE('',#229,21.);
#29=CYLINDRICAL_SURFACE('',#230,44.5);
#30=FACE_BOUND('',#65,.T.);
#31=FACE_BOUND('',#67,.T.);
#32=FACE_BOUND('',#69,.T.);
#33=FACE_BOUND('',#71,.T.);
#34=FACE_BOUND('',#73,.T.);
#35=FACE_BOUND('',#75,.T.);
#36=FACE_BOUND('',#77,.T.);
#37=FACE_BOUND('',#79,.T.);
#38=FACE_BOUND('',#81,.T.);
#39=FACE_BOUND('',#83,.T.);
#40=FACE_BOUND('',#85,.T.);
#41=FACE_BOUND('',#86,.T.);
#42=FACE_BOUND('',#88,.T.);
#43=FACE_BOUND('',#90,.T.);
#44=FACE_BOUND('',#92,.T.);
#45=FACE_BOUND('',#93,.T.);
#46=FACE_BOUND('',#95,.T.);
#47=FACE_BOUND('',#97,.T.);
#48=FACE_OUTER_BOUND('',#64,.T.);
#49=FACE_OUTER_BOUND('',#66,.T.);
#50=FACE_OUTER_BOUND('',#68,.T.);
#51=FACE_OUTER_BOUND('',#70,.T.);
#52=FACE_OUTER_BOUND('',#72,.T.);
#53=FACE_OUTER_BOUND('',#74,.T.);
#54=FACE_OUTER_BOUND('',#76,.T.);
#55=FACE_OUTER_BOUND('',#78,.T.);
#56=FACE_OUTER_BOUND('',#80,.T.);
#57=FACE_OUTER_BOUND('',#82,.T.);
#58=FACE_OUTER_BOUND('',#84,.T.);
#59=FACE_OUTER_BOUND('',#87,.T.);
#60=FACE_OUTER_BOUND('',#89,.T.);
#61=FACE_OUTER_BOUND('',#91,.T.);
#62=FACE_OUTER_BOUND('',#94,.T.);
#63=FACE_OUTER_BOUND('',#96,.T.);
#64=EDGE_LOOP('',(#147));
#65=EDGE_LOOP('',(#148));
#66=EDGE_LOOP('',(#149));
#67=EDGE_LOOP('',(#150));
#68=EDGE_LOOP('',(#151));
#69=EDGE_LOOP('',(#152));
#70=EDGE_LOOP('',(#153));
#71=EDGE_LOOP('',(#154));
#72=EDGE_LOOP('',(#155));
#73=EDGE_LOOP('',(#156));
#74=EDGE_LOOP('',(#157));
#75=EDGE_LOOP('',(#158));
#76=EDGE_LOOP('',(#159));
#77=EDGE_LOOP('',(#160));
#78=EDGE_LOOP('',(#161));
#79=EDGE_LOOP('',(#162));
#80=EDGE_LOOP('',(#163));
#81=EDGE_LOOP('',(#164));
#82=EDGE_LOOP('',(#165));
#83=EDGE_LOOP('',(#166));
#84=EDGE_LOOP('',(#167));
#85=EDGE_LOOP('',(#168));
#86=EDGE_LOOP('',(#169));
#87=EDGE_LOOP('',(#170));
#88=EDGE_LOOP('',(#171));
#89=EDGE_LOOP('',(#172));
#90=EDGE_LOOP('',(#173));
#91=EDGE_LOOP('',(#174));
#92=EDGE_LOOP('',(#175));
#93=EDGE_LOOP('',(#176));
#94=EDGE_LOOP('',(#177));
#95=EDGE_LOOP('',(#178));
#96=EDGE_LOOP('',(#179));
#97=EDGE_LOOP('',(#180));
#98=CIRCLE('',#203,37.5);
#99=CIRCLE('',#204,38.);
#100=CIRCLE('',#206,37.5);
#101=CIRCLE('',#208,44.5);
#102=CIRCLE('',#210,37.5);
#103=CIRCLE('',#211,38.);
#104=CIRCLE('',#213,37.5);
#105=CIRCLE('',#215,44.5);
#106=CIRCLE('',#217,16.);
#107=CIRCLE('',#218,16.5);
#108=CIRCLE('',#220,16.);
#109=CIRCLE('',#222,21.);
#110=CIRCLE('',#224,14.5);
#111=CIRCLE('',#226,36.);
#112=CIRCLE('',#227,36.);
#113=VERTEX_POINT('',#299);
#114=VERTEX_POINT('',#301);
#115=VERTEX_POINT('',#304);
#116=VERTEX_POINT('',#307);
#117=VERTEX_POINT('',#310);
#118=VERTEX_POINT('',#312);
#119=VERTEX_POINT('',#315);
#120=VERTEX_POINT('',#318);
#121=VERTEX_POINT('',#321);
#122=VERTEX_POINT('',#323);
#123=VERTEX_POINT('',#326);
#124=VERTEX_POINT('',#329);
#125=VERTEX_POINT('',#332);
#126=VERTEX_POINT('',#383);
#127=VERTEX_POINT('',#386);
#128=VERTEX_POINT('',#388);
#129=VERTEX_POINT('',#392);
#130=EDGE_CURVE('',#113,#113,#98,.T.);
#131=EDGE_CURVE('',#114,#114,#99,.T.);
#132=EDGE_CURVE('',#115,#115,#100,.T.);
#133=EDGE_CURVE('',#116,#116,#101,.T.);
#134=EDGE_CURVE('',#117,#117,#102,.T.);
#135=EDGE_CURVE('',#118,#118,#103,.T.);
#136=EDGE_CURVE('',#119,#119,#104,.T.);
#137=EDGE_CURVE('',#120,#120,#105,.T.);
#138=EDGE_CURVE('',#121,#121,#106,.T.);
#139=EDGE_CURVE('',#122,#122,#107,.T.);
#140=EDGE_CURVE('',#123,#123,#108,.T.);
#141=EDGE_CURVE('',#124,#124,#109,.T.);
#142=EDGE_CURVE('',#125,#125,#15,.T.);
#143=EDGE_CURVE('',#126,#126,#110,.T.);
#144=EDGE_CURVE('',#127,#127,#111,.T.);
#145=EDGE_CURVE('',#128,#128,#112,.T.);
#146=EDGE_CURVE('',#129,#129,#16,.T.);
#147=ORIENTED_EDGE('',*,*,#130,.T.);
#148=ORIENTED_EDGE('',*,*,#131,.T.);
#149=ORIENTED_EDGE('',*,*,#132,.T.);
#150=ORIENTED_EDGE('',*,*,#130,.F.);
#151=ORIENTED_EDGE('',*,*,#133,.T.);
#152=ORIENTED_EDGE('',*,*,#131,.F.);
#153=ORIENTED_EDGE('',*,*,#134,.T.);
#154=ORIENTED_EDGE('',*,*,#135,.T.);
#155=ORIENTED_EDGE('',*,*,#136,.F.);
#156=ORIENTED_EDGE('',*,*,#134,.F.);
#157=ORIENTED_EDGE('',*,*,#137,.T.);
#158=ORIENTED_EDGE('',*,*,#135,.F.);
#159=ORIENTED_EDGE('',*,*,#138,.T.);
#160=ORIENTED_EDGE('',*,*,#139,.T.);
#161=ORIENTED_EDGE('',*,*,#140,.T.);
#162=ORIENTED_EDGE('',*,*,#138,.F.);
#163=ORIENTED_EDGE('',*,*,#141,.F.);
#164=ORIENTED_EDGE('',*,*,#139,.F.);
#165=ORIENTED_EDGE('',*,*,#142,.F.);
#166=ORIENTED_EDGE('',*,*,#143,.F.);
#167=ORIENTED_EDGE('',*,*,#144,.F.);
#168=ORIENTED_EDGE('',*,*,#142,.T.);
#169=ORIENTED_EDGE('',*,*,#145,.F.);
#170=ORIENTED_EDGE('',*,*,#140,.F.);
#171=ORIENTED_EDGE('',*,*,#143,.T.);
#172=ORIENTED_EDGE('',*,*,#141,.T.);
#173=ORIENTED_EDGE('',*,*,#146,.F.);
#174=ORIENTED_EDGE('',*,*,#133,.F.);
#175=ORIENTED_EDGE('',*,*,#137,.F.);
#176=ORIENTED_EDGE('',*,*,#146,.T.);
#177=ORIENTED_EDGE('',*,*,#136,.T.);
#178=ORIENTED_EDGE('',*,*,#145,.T.);
#179=ORIENTED_EDGE('',*,*,#132,.F.);
#180=ORIENTED_EDGE('',*,*,#144,.T.);
#181=TOROIDAL_SURFACE('',#202,38.,0.5);
#182=TOROIDAL_SURFACE('',#209,38.,0.5);
#183=TOROIDAL_SURFACE('',#216,16.5,0.5);
#184=ADVANCED_FACE('',(#48,#30),#181,.T.);
#185=ADVANCED_FACE('',(#49,#31),#23,.F.);
#186=ADVANCED_FACE('',(#50,#32),#17,.T.);
#187=ADVANCED_FACE('',(#51,#33),#182,.T.);
#188=ADVANCED_FACE('',(#52,#34),#24,.F.);
#189=ADVANCED_FACE('',(#53,#35),#18,.F.);
#190=ADVANCED_FACE('',(#54,#36),#183,.T.);
#191=ADVANCED_FACE('',(#55,#37),#25,.F.);
#192=ADVANCED_FACE('',(#56,#38),#19,.T.);
#193=ADVANCED_FACE('',(#57,#39),#26,.F.);
#194=ADVANCED_FACE('',(#58,#40,#41),#27,.F.);
#195=ADVANCED_FACE('',(#59,#42),#20,.T.);
#196=ADVANCED_FACE('',(#60,#43),#28,.T.);
#197=ADVANCED_FACE('',(#61,#44,#45),#29,.T.);
#198=ADVANCED_FACE('',(#62,#46),#21,.F.);
#199=ADVANCED_FACE('',(#63,#47),#22,.T.);
#200=CLOSED_SHELL('',(#184,#185,#186,#187,#188,#189,#190,#191,#192,#193,
#194,#195,#196,#197,#198,#199));
#201=AXIS2_PLACEMENT_3D('placement',#297,#233,#234);
#202=AXIS2_PLACEMENT_3D('',#298,#235,#236);
#203=AXIS2_PLACEMENT_3D('',#300,#237,#238);
#204=AXIS2_PLACEMENT_3D('',#302,#239,#240);
#205=AXIS2_PLACEMENT_3D('',#303,#241,#242);
#206=AXIS2_PLACEMENT_3D('',#305,#243,#244);
#207=AXIS2_PLACEMENT_3D('',#306,#245,#246);
#208=AXIS2_PLACEMENT_3D('',#308,#247,#248);
#209=AXIS2_PLACEMENT_3D('',#309,#249,#250);
#210=AXIS2_PLACEMENT_3D('',#311,#251,#252);
#211=AXIS2_PLACEMENT_3D('',#313,#253,#254);
#212=AXIS2_PLACEMENT_3D('',#314,#255,#256);
#213=AXIS2_PLACEMENT_3D('',#316,#257,#258);
#214=AXIS2_PLACEMENT_3D('',#317,#259,#260);
#215=AXIS2_PLACEMENT_3D('',#319,#261,#262);
#216=AXIS2_PLACEMENT_3D('',#320,#263,#264);
#217=AXIS2_PLACEMENT_3D('',#322,#265,#266);
#218=AXIS2_PLACEMENT_3D('',#324,#267,#268);
#219=AXIS2_PLACEMENT_3D('',#325,#269,#270);
#220=AXIS2_PLACEMENT_3D('',#327,#271,#272);
#221=AXIS2_PLACEMENT_3D('',#328,#273,#274);
#222=AXIS2_PLACEMENT_3D('',#330,#275,#276);
#223=AXIS2_PLACEMENT_3D('',#331,#277,#278);
#224=AXIS2_PLACEMENT_3D('',#384,#279,#280);
#225=AXIS2_PLACEMENT_3D('',#385,#281,#282);
#226=AXIS2_PLACEMENT_3D('',#387,#283,#284);
#227=AXIS2_PLACEMENT_3D('',#389,#285,#286);
#228=AXIS2_PLACEMENT_3D('',#390,#287,#288);
#229=AXIS2_PLACEMENT_3D('',#391,#289,#290);
#230=AXIS2_PLACEMENT_3D('',#459,#291,#292);
#231=AXIS2_PLACEMENT_3D('',#460,#293,#294);
#232=AXIS2_PLACEMENT_3D('',#461,#295,#296);
#233=DIRECTION('axis',(0.,0.,1.));
#234=DIRECTION('refdir',(1.,0.,0.));
#235=DIRECTION('center_axis',(0.,0.,-1.));
#236=DIRECTION('ref_axis',(-1.,0.,0.));
#237=DIRECTION('center_axis',(0.,0.,-1.));
#238=DIRECTION('ref_axis',(-1.,0.,0.));
#239=DIRECTION('center_axis',(0.,0.,1.));
#240=DIRECTION('ref_axis',(-1.,0.,0.));
#241=DIRECTION('center_axis',(0.,0.,-1.));
#242=DIRECTION('ref_axis',(-1.,0.,0.));
#243=DIRECTION('center_axis',(0.,0.,-1.));
#244=DIRECTION('ref_axis',(-1.,0.,0.));
#245=DIRECTION('center_axis',(0.,0.,1.));
#246=DIRECTION('ref_axis',(1.,0.,0.));
#247=DIRECTION('center_axis',(0.,0.,1.));
#248=DIRECTION('ref_axis',(-1.,0.,0.));
#249=DIRECTION('center_axis',(0.,0.,1.));
#250=DIRECTION('ref_axis',(1.,0.,0.));
#251=DIRECTION('center_axis',(0.,0.,1.));
#252=DIRECTION('ref_axis',(-1.,0.,0.));
#253=DIRECTION('center_axis',(0.,0.,-1.));
#254=DIRECTION('ref_axis',(-1.,0.,0.));
#255=DIRECTION('center_axis',(0.,0.,-1.));
#256=DIRECTION('ref_axis',(-1.,0.,0.));
#257=DIRECTION('center_axis',(0.,0.,-1.));
#258=DIRECTION('ref_axis',(-1.,0.,0.));
#259=DIRECTION('center_axis',(0.,0.,1.));
#260=DIRECTION('ref_axis',(1.,0.,0.));
#261=DIRECTION('center_axis',(0.,0.,-1.));
#262=DIRECTION('ref_axis',(-1.,0.,0.));
#263=DIRECTION('center_axis',(0.,-1.,0.));
#264=DIRECTION('ref_axis',(0.,0.,-1.));
#265=DIRECTION('center_axis',(0.,-1.,0.));
#266=DIRECTION('ref_axis',(-1.,0.,0.));
#267=DIRECTION('center_axis',(0.,1.,0.));
#268=DIRECTION('ref_axis',(-1.,0.,0.));
#269=DIRECTION('center_axis',(0.,-1.,0.));
#270=DIRECTION('ref_axis',(-1.,0.,0.));
#271=DIRECTION('center_axis',(0.,-1.,0.));
#272=DIRECTION('ref_axis',(-1.,0.,0.));
#273=DIRECTION('center_axis',(0.,1.,0.));
#274=DIRECTION('ref_axis',(0.,0.,1.));
#275=DIRECTION('center_axis',(0.,-1.,0.));
#276=DIRECTION('ref_axis',(1.,0.,0.));
#277=DIRECTION('center_axis',(0.,-1.,0.));
#278=DIRECTION('ref_axis',(-1.,0.,0.));
#279=DIRECTION('center_axis',(0.,-1.,0.));
#280=DIRECTION('ref_axis',(-1.,0.,0.));
#281=DIRECTION('center_axis',(0.,0.,1.));
#282=DIRECTION('ref_axis',(1.,0.,0.));
#283=DIRECTION('center_axis',(0.,0.,-1.));
#284=DIRECTION('ref_axis',(1.,0.,0.));
#285=DIRECTION('center_axis',(0.,0.,1.));
#286=DIRECTION('ref_axis',(1.,0.,0.));
#287=DIRECTION('center_axis',(0.,1.,0.));
#288=DIRECTION('ref_axis',(0.,0.,1.));
#289=DIRECTION('center_axis',(0.,-1.,0.));
#290=DIRECTION('ref_axis',(1.,0.,0.));
#291=DIRECTION('center_axis',(0.,0.,1.));
#292=DIRECTION('ref_axis',(-1.,0.,0.));
#293=DIRECTION('center_axis',(0.,0.,1.));
#294=DIRECTION('ref_axis',(1.,0.,0.));
#295=DIRECTION('center_axis',(0.,0.,1.));
#296=DIRECTION('ref_axis',(1.,0.,0.));
#297=CARTESIAN_POINT('',(0.,0.,0.));
#298=CARTESIAN_POINT('Origin',(0.,0.,82.5));
#299=CARTESIAN_POINT('',(37.5,-4.59242549680258E-15,82.5));
#300=CARTESIAN_POINT('Origin',(0.,0.,82.5));
#301=CARTESIAN_POINT('',(38.,4.65365783675994E-15,83.));
#302=CARTESIAN_POINT('Origin',(0.,0.,83.));
#303=CARTESIAN_POINT('Origin',(0.,0.,83.));
#304=CARTESIAN_POINT('',(37.5,4.59242549680258E-15,39.));
#305=CARTESIAN_POINT('Origin',(0.,0.,39.));
#306=CARTESIAN_POINT('Origin',(-4.44595297693156E-15,0.,83.));
#307=CARTESIAN_POINT('',(44.5,5.44967825620572E-15,83.));
#308=CARTESIAN_POINT('Origin',(0.,0.,83.));
#309=CARTESIAN_POINT('Origin',(0.,0.,-82.5));
#310=CARTESIAN_POINT('',(37.5,4.59242549680258E-15,-82.5));
#311=CARTESIAN_POINT('Origin',(0.,0.,-82.5));
#312=CARTESIAN_POINT('',(38.,-4.65365783675994E-15,-83.));
#313=CARTESIAN_POINT('Origin',(0.,0.,-83.));
#314=CARTESIAN_POINT('Origin',(0.,0.,-83.));
#315=CARTESIAN_POINT('',(37.5,4.59242549680258E-15,-39.));
#316=CARTESIAN_POINT('Origin',(0.,0.,-39.));
#317=CARTESIAN_POINT('Origin',(-4.44595297693156E-15,0.,-83.));
#318=CARTESIAN_POINT('',(44.5,5.44967825620572E-15,-83.));
#319=CARTESIAN_POINT('Origin',(0.,0.,-83.));
#320=CARTESIAN_POINT('Origin',(0.,60.5,0.));
#321=CARTESIAN_POINT('',(16.,60.5,1.95943487863577E-15));
#322=CARTESIAN_POINT('Origin',(0.,60.5,0.));
#323=CARTESIAN_POINT('',(16.5,61.,-2.02066721859313E-15));
#324=CARTESIAN_POINT('Origin',(0.,61.,0.));
#325=CARTESIAN_POINT('Origin',(0.,61.,0.));
#326=CARTESIAN_POINT('',(16.,39.,-1.95943487863577E-15));
#327=CARTESIAN_POINT('Origin',(0.,39.,0.));
#328=CARTESIAN_POINT('Origin',(9.19216697549299E-16,61.,0.));
#329=CARTESIAN_POINT('',(-21.,61.,2.57175827820944E-15));
#330=CARTESIAN_POINT('Origin',(0.,61.,0.));
#331=CARTESIAN_POINT('Origin',(0.,39.,0.));
#332=CARTESIAN_POINT('',(14.5,32.9507207811908,-2.77555756156289E-16));
#333=CARTESIAN_POINT('Ctrl Pts',(14.5,32.9507207811908,-2.77555756156289E-16));
#334=CARTESIAN_POINT('Ctrl Pts',(14.5,32.9507207811908,-0.922283833360714));
#335=CARTESIAN_POINT('Ctrl Pts',(14.4105974267296,32.9905400451352,-1.8721549865088));
#336=CARTESIAN_POINT('Ctrl Pts',(14.0383520141114,33.1506519286451,-3.7543248821543));
#337=CARTESIAN_POINT('Ctrl Pts',(13.7556320052199,33.2707481315464,-4.68666461876139));
#338=CARTESIAN_POINT('Ctrl Pts',(12.6413639776133,33.7170019585285,-7.36036329142843));
#339=CARTESIAN_POINT('Ctrl Pts',(11.5294892008095,34.1298111237335,-8.9766074536004));
#340=CARTESIAN_POINT('Ctrl Pts',(8.97793811360551,34.8879070859476,-11.5281585408044));
#341=CARTESIAN_POINT('Ctrl Pts',(7.36119154759028,35.2855746453265,-12.6410417322941));
#342=CARTESIAN_POINT('Ctrl Pts',(4.68601944347194,35.7051250058074,-13.7558894157284));
#343=CARTESIAN_POINT('Ctrl Pts',(3.75319582452882,35.8162638215329,-14.0386585188768));
#344=CARTESIAN_POINT('Ctrl Pts',(1.87086195533002,35.9637471431417,-14.4107698424947));
#345=CARTESIAN_POINT('Ctrl Pts',(0.921322373855781,36.,-14.5));
#346=CARTESIAN_POINT('Ctrl Pts',(-0.921322373855785,36.,-14.5));
#347=CARTESIAN_POINT('Ctrl Pts',(-1.87086195533002,35.9637471431417,-14.4107698424947));
#348=CARTESIAN_POINT('Ctrl Pts',(-3.75319582452882,35.8162638215329,-14.0386585188768));
#349=CARTESIAN_POINT('Ctrl Pts',(-4.68601944347195,35.7051250058074,-13.7558894157284));
#350=CARTESIAN_POINT('Ctrl Pts',(-7.36119154759028,35.2855746453265,-12.6410417322941));
#351=CARTESIAN_POINT('Ctrl Pts',(-8.97793811360551,34.8879070859476,-11.5281585408044));
#352=CARTESIAN_POINT('Ctrl Pts',(-11.5294892008095,34.1298111237335,-8.9766074536004));
#353=CARTESIAN_POINT('Ctrl Pts',(-12.6413639776133,33.7170019585285,-7.36036329142843));
#354=CARTESIAN_POINT('Ctrl Pts',(-13.7556320052199,33.2707481315464,-4.68666461876139));
#355=CARTESIAN_POINT('Ctrl Pts',(-14.0383520141114,33.1506519286451,-3.75432488215431));
#356=CARTESIAN_POINT('Ctrl Pts',(-14.4105974267296,32.9905400451352,-1.8721549865088));
#357=CARTESIAN_POINT('Ctrl Pts',(-14.5,32.9507207811908,-0.922283833360715));
#358=CARTESIAN_POINT('Ctrl Pts',(-14.5,32.9507207811908,0.922283833360712));
#359=CARTESIAN_POINT('Ctrl Pts',(-14.4105974267296,32.9905400451352,1.87215498650879));
#360=CARTESIAN_POINT('Ctrl Pts',(-14.0383520141114,33.1506519286451,3.7543248821543));
#361=CARTESIAN_POINT('Ctrl Pts',(-13.7556320052199,33.2707481315464,4.68666461876139));
#362=CARTESIAN_POINT('Ctrl Pts',(-12.6413639776133,33.7170019585285,7.36036329142843));
#363=CARTESIAN_POINT('Ctrl Pts',(-11.5294892008095,34.1298111237335,8.9766074536004));
#364=CARTESIAN_POINT('Ctrl Pts',(-8.97793811360551,34.8879070859476,11.5281585408044));
#365=CARTESIAN_POINT('Ctrl Pts',(-7.36119154759028,35.2855746453265,12.6410417322941));
#366=CARTESIAN_POINT('Ctrl Pts',(-4.68601944347194,35.7051250058074,13.7558894157284));
#367=CARTESIAN_POINT('Ctrl Pts',(-3.75319582452882,35.8162638215329,14.0386585188768));
#368=CARTESIAN_POINT('Ctrl Pts',(-1.87086195533002,35.9637471431417,14.4107698424947));
#369=CARTESIAN_POINT('Ctrl Pts',(-0.921322373855783,36.,14.5));
#370=CARTESIAN_POINT('Ctrl Pts',(0.921322373855781,36.,14.5));
#371=CARTESIAN_POINT('Ctrl Pts',(1.87086195533002,35.9637471431417,14.4107698424947));
#372=CARTESIAN_POINT('Ctrl Pts',(3.75319582452882,35.8162638215329,14.0386585188768));
#373=CARTESIAN_POINT('Ctrl Pts',(4.68601944347194,35.7051250058074,13.7558894157284));
#374=CARTESIAN_POINT('Ctrl Pts',(7.36119154759028,35.2855746453265,12.6410417322941));
#375=CARTESIAN_POINT('Ctrl Pts',(8.97793811360551,34.8879070859476,11.5281585408044));
#376=CARTESIAN_POINT('Ctrl Pts',(11.5294892008095,34.1298111237335,8.9766074536004));
#377=CARTESIAN_POINT('Ctrl Pts',(12.6413639776133,33.7170019585285,7.36036329142844));
#378=CARTESIAN_POINT('Ctrl Pts',(13.7556320052198,33.2707481315464,4.6866646187614));
#379=CARTESIAN_POINT('Ctrl Pts',(14.0383520141114,33.1506519286451,3.75432488215431));
#380=CARTESIAN_POINT('Ctrl Pts',(14.4105974267296,32.9905400451352,1.8721549865088));
#381=CARTESIAN_POINT('Ctrl Pts',(14.5,32.9507207811908,0.922283833360715));
#382=CARTESIAN_POINT('Ctrl Pts',(14.5,32.9507207811908,0.));
#383=CARTESIAN_POINT('',(14.5,39.,-1.77573785876366E-15));
#384=CARTESIAN_POINT('Origin',(0.,39.,0.));
#385=CARTESIAN_POINT('Origin',(0.,0.,-39.));
#386=CARTESIAN_POINT('',(-36.,4.40872847693047E-15,39.));
#387=CARTESIAN_POINT('Origin',(0.,0.,39.));
#388=CARTESIAN_POINT('',(-36.,4.40872847693047E-15,-39.));
#389=CARTESIAN_POINT('Origin',(0.,0.,-39.));
#390=CARTESIAN_POINT('Origin',(-1.55106502066776E-15,39.,2.31296463463574E-16));
#391=CARTESIAN_POINT('Origin',(0.,61.,0.));
#392=CARTESIAN_POINT('',(21.,39.2332766921143,-5.55111512312578E-16));
#393=CARTESIAN_POINT('Ctrl Pts',(21.,39.2332766921143,-5.55111512312578E-16));
#394=CARTESIAN_POINT('Ctrl Pts',(21.,39.2332766921143,1.34343870748377));
#395=CARTESIAN_POINT('Ctrl Pts',(20.8690431640907,39.30428227308,2.72422652966371));
#396=CARTESIAN_POINT('Ctrl Pts',(20.3267503699765,39.5874574409008,5.45541863981043));
#397=CARTESIAN_POINT('Ctrl Pts',(19.9156231047306,39.7991961149697,6.80590902107135));
#398=CARTESIAN_POINT('Ctrl Pts',(18.8383330356692,40.3202826868245,9.38454753422195));
#399=CARTESIAN_POINT('Ctrl Pts',(18.1713144685595,40.6293929837882,10.6151483385335));
#400=CARTESIAN_POINT('Ctrl Pts',(16.637630893076,41.2811516537045,12.8867095201694));
#401=CARTESIAN_POINT('Ctrl Pts',(15.7707682988984,41.6231724505707,13.9277165109366));
#402=CARTESIAN_POINT('Ctrl Pts',(13.9296495299417,42.2748918000249,15.7688352798933));
#403=CARTESIAN_POINT('Ctrl Pts',(12.8895912662677,42.6086339735195,16.635430983311));
#404=CARTESIAN_POINT('Ctrl Pts',(10.6176106750151,43.2308176608645,18.1699056318082));
#405=CARTESIAN_POINT('Ctrl Pts',(9.38563400052968,43.5187650363336,18.8379044252998));
#406=CARTESIAN_POINT('Ctrl Pts',(6.80414560155715,43.9963252991957,19.9163345226639));
#407=CARTESIAN_POINT('Ctrl Pts',(5.45221527005895,44.1860250704602,20.327625689243));
#408=CARTESIAN_POINT('Ctrl Pts',(2.72047760792872,44.4379394714293,20.8695476497385));
#409=CARTESIAN_POINT('Ctrl Pts',(1.34062067212434,44.5,21.));
#410=CARTESIAN_POINT('Ctrl Pts',(-1.34062067212433,44.5,21.));
#411=CARTESIAN_POINT('Ctrl Pts',(-2.72047760792872,44.4379394714293,20.8695476497385));
#412=CARTESIAN_POINT('Ctrl Pts',(-5.45221527005894,44.1860250704602,20.327625689243));
#413=CARTESIAN_POINT('Ctrl Pts',(-6.80414560155714,43.9963252991957,19.9163345226639));
#414=CARTESIAN_POINT('Ctrl Pts',(-9.38563400052967,43.5187650363336,18.8379044252998));
#415=CARTESIAN_POINT('Ctrl Pts',(-10.6176106750151,43.2308176608645,18.1699056318082));
#416=CARTESIAN_POINT('Ctrl Pts',(-12.8895912662677,42.6086339735195,16.635430983311));
#417=CARTESIAN_POINT('Ctrl Pts',(-13.9296495299417,42.2748918000249,15.7688352798933));
#418=CARTESIAN_POINT('Ctrl Pts',(-15.7707682988984,41.6231724505707,13.9277165109366));
#419=CARTESIAN_POINT('Ctrl Pts',(-16.637630893076,41.2811516537045,12.8867095201694));
#420=CARTESIAN_POINT('Ctrl Pts',(-18.1713144685595,40.6293929837882,10.6151483385335));
#421=CARTESIAN_POINT('Ctrl Pts',(-18.8383330356692,40.3202826868245,9.38454753422195));
#422=CARTESIAN_POINT('Ctrl Pts',(-19.9156231047306,39.7991961149697,6.80590902107136));
#423=CARTESIAN_POINT('Ctrl Pts',(-20.3267503699765,39.5874574409008,5.45541863981043));
#424=CARTESIAN_POINT('Ctrl Pts',(-20.8690431640907,39.30428227308,2.72422652966371));
#425=CARTESIAN_POINT('Ctrl Pts',(-21.,39.2332766921143,1.34343870748377));
#426=CARTESIAN_POINT('Ctrl Pts',(-21.,39.2332766921143,-1.34343870748377));
#427=CARTESIAN_POINT('Ctrl Pts',(-20.8690431640907,39.30428227308,-2.72422652966371));
#428=CARTESIAN_POINT('Ctrl Pts',(-20.3267503699765,39.5874574409008,-5.45541863981043));
#429=CARTESIAN_POINT('Ctrl Pts',(-19.9156231047306,39.7991961149697,-6.80590902107135));
#430=CARTESIAN_POINT('Ctrl Pts',(-18.8383330356692,40.3202826868245,-9.38454753422195));
#431=CARTESIAN_POINT('Ctrl Pts',(-18.1713144685595,40.6293929837882,-10.6151483385335));
#432=CARTESIAN_POINT('Ctrl Pts',(-16.637630893076,41.2811516537045,-12.8867095201694));
#433=CARTESIAN_POINT('Ctrl Pts',(-15.7707682988984,41.6231724505707,-13.9277165109366));
#434=CARTESIAN_POINT('Ctrl Pts',(-13.9296495299417,42.2748918000249,-15.7688352798933));
#435=CARTESIAN_POINT('Ctrl Pts',(-12.8895912662677,42.6086339735195,-16.635430983311));
#436=CARTESIAN_POINT('Ctrl Pts',(-10.6176106750151,43.2308176608645,-18.1699056318082));
#437=CARTESIAN_POINT('Ctrl Pts',(-9.38563400052968,43.5187650363336,-18.8379044252998));
#438=CARTESIAN_POINT('Ctrl Pts',(-6.80414560155715,43.9963252991957,-19.9163345226639));
#439=CARTESIAN_POINT('Ctrl Pts',(-5.45221527005895,44.1860250704602,-20.327625689243));
#440=CARTESIAN_POINT('Ctrl Pts',(-2.72047760792872,44.4379394714293,-20.8695476497385));
#441=CARTESIAN_POINT('Ctrl Pts',(-1.34062067212434,44.5,-21.));
#442=CARTESIAN_POINT('Ctrl Pts',(1.34062067212433,44.5,-21.));
#443=CARTESIAN_POINT('Ctrl Pts',(2.72047760792871,44.4379394714293,-20.8695476497385));
#444=CARTESIAN_POINT('Ctrl Pts',(5.45221527005894,44.1860250704602,-20.327625689243));
#445=CARTESIAN_POINT('Ctrl Pts',(6.80414560155714,43.9963252991957,-19.9163345226639));
#446=CARTESIAN_POINT('Ctrl Pts',(9.38563400052967,43.5187650363336,-18.8379044252998));
#447=CARTESIAN_POINT('Ctrl Pts',(10.6176106750151,43.2308176608645,-18.1699056318082));
#448=CARTESIAN_POINT('Ctrl Pts',(12.8895912662677,42.6086339735195,-16.635430983311));
#449=CARTESIAN_POINT('Ctrl Pts',(13.9296495299417,42.2748918000249,-15.7688352798933));
#450=CARTESIAN_POINT('Ctrl Pts',(15.7707682988984,41.6231724505707,-13.9277165109366));
#451=CARTESIAN_POINT('Ctrl Pts',(16.637630893076,41.2811516537045,-12.8867095201694));
#452=CARTESIAN_POINT('Ctrl Pts',(18.1713144685595,40.6293929837882,-10.6151483385335));
#453=CARTESIAN_POINT('Ctrl Pts',(18.8383330356692,40.3202826868245,-9.38454753422194));
#454=CARTESIAN_POINT('Ctrl Pts',(19.9156231047306,39.7991961149697,-6.80590902107136));
#455=CARTESIAN_POINT('Ctrl Pts',(20.3267503699765,39.5874574409008,-5.45541863981044));
#456=CARTESIAN_POINT('Ctrl Pts',(20.8690431640907,39.30428227308,-2.72422652966372));
#457=CARTESIAN_POINT('Ctrl Pts',(21.,39.2332766921143,-1.34343870748378));
#458=CARTESIAN_POINT('Ctrl Pts',(21.,39.2332766921143,-5.55111512312578E-16));
#459=CARTESIAN_POINT('Origin',(0.,0.,0.));
#460=CARTESIAN_POINT('Origin',(-3.54066983922288E-15,-7.89491928622334E-16,
-39.));
#461=CARTESIAN_POINT('Origin',(-3.54066983922288E-15,-7.89491928622334E-16,
39.));
#462=UNCERTAINTY_MEASURE_WITH_UNIT(LENGTH_MEASURE(0.01),#466,
'DISTANCE_ACCURACY_VALUE',
'Maximum model space distance between geometric entities at asserted c
onnectivities');
#463=UNCERTAINTY_MEASURE_WITH_UNIT(LENGTH_MEASURE(1.E-6),#466,
'DISTANCE_ACCURACY_VALUE',
'Maximum model space distance between geometric entities at asserted c
onnectivities');
#464=(
GEOMETRIC_REPRESENTATION_CONTEXT(3)
GLOBAL_UNCERTAINTY_ASSIGNED_CONTEXT((#462))
GLOBAL_UNIT_ASSIGNED_CONTEXT((#466,#469,#467))
REPRESENTATION_CONTEXT('','3D')
);
#465=(
GEOMETRIC_REPRESENTATION_CONTEXT(3)
GLOBAL_UNCERTAINTY_ASSIGNED_CONTEXT((#463))
GLOBAL_UNIT_ASSIGNED_CONTEXT((#466,#469,#467))
REPRESENTATION_CONTEXT('','3D')
);
#466=(
LENGTH_UNIT()
NAMED_UNIT(*)
SI_UNIT(.MILLI.,.METRE.)
);
#467=(
NAMED_UNIT(*)
SI_UNIT($,.STERADIAN.)
SOLID_ANGLE_UNIT()
);
#468=DIMENSIONAL_EXPONENTS(0.,0.,0.,0.,0.,0.,0.);
#469=(
CONVERSION_BASED_UNIT('degree',#471)
NAMED_UNIT(#468)
PLANE_ANGLE_UNIT()
);
#470=(
NAMED_UNIT(*)
PLANE_ANGLE_UNIT()
SI_UNIT($,.RADIAN.)
);
#471=PLANE_ANGLE_MEASURE_WITH_UNIT(PLANE_ANGLE_MEASURE(0.01745329252),#470);
#472=SHAPE_DEFINITION_REPRESENTATION(#473,#474);
#473=PRODUCT_DEFINITION_SHAPE('',$,#476);
#474=SHAPE_REPRESENTATION('',(#201),#464);
#475=PRODUCT_DEFINITION_CONTEXT('part definition',#480,'design');
#476=PRODUCT_DEFINITION('TR40075D','TR40075D',#477,#475);
#477=PRODUCT_DEFINITION_FORMATION('',$,#482);
#478=PRODUCT_RELATED_PRODUCT_CATEGORY('TR40075D','TR40075D',(#482));
#479=APPLICATION_PROTOCOL_DEFINITION('international standard',
'automotive_design',2009,#480);
#480=APPLICATION_CONTEXT(
'Core Data for Automotive Mechanical Design Process');
#481=PRODUCT_CONTEXT('part definition',#480,'mechanical');
#482=PRODUCT('TR40075D','TR40075D',$,(#481));
#483=PRESENTATION_STYLE_ASSIGNMENT((#484));
#484=SURFACE_STYLE_USAGE(.BOTH.,#485);
#485=SURFACE_SIDE_STYLE('',(#486));
#486=SURFACE_STYLE_FILL_AREA(#487);
#487=FILL_AREA_STYLE('',(#488));
#488=FILL_AREA_STYLE_COLOUR('',#489);
#489=COLOUR_RGB('',0.8,0.8,0.8);
ENDSEC;
END-ISO-10303-21;
